System of a Down

System of a Down – Toxicity

Tablature gratuite de la chanson “Toxicit” de System of a Down.

Clip vidéo

Tablature, accords:

Tuning: drop C
/ slide up
\ slide down
intro:
|-------------------------------------------------------------------------------|
|-------------------------------------------------------------------------------|
|-------------------------------------------------------------------------------|
|-----7-----7-----7-----7-----5-----5-----10-----10-----10-----10-----10-----10-|
|--5-----5-----5-----5-----5-----7-----8------8------8------8------8------8-----|
|-------------------------------------------------------------------------------|
|-------------------------------------------------------------------------------|
|-------------------------------------------------------------------------------|
|-------------------------------------------------------------------------------|
|-\7-----7-----5-----5-----7-----7/10-----10-----10-12-----12-10-----10-8-----8-|
|-----5-----5-----7-----8-----5--------8------8---------8---------8--------8----|
|-------------------------------------------------------------------------------|
chorus:
|---------------------------------------|
|---------------------------------------|
|*-------------------------------------*|
|*--------------------8--8---7--7-7-7--*|  x2
|---0------------0----8--8---7--7-7-7---|
|---0----3-2-0-2-0----8--8---7--7-7-7---|
|-------------------------------------------------------------------------|
|-------------------------------------------------------------------------|
|-------------------------------------------------------------------------|
|----------------------------------------------------8--8-8-8---7--7-7-7--|
|----------------------------------------------------8--8-8-8---7--7-7-7--|
|--3-2-0-2-0-0-3-2-0-2-0-0-3-2-0-2-0-0-3-2-0-2-0-0---8--8-8-8---7--7-7-7--|
|---------------------------------------|
|---------------------------------------|
|---------------------------------------|
|---------------------8--8---7--7-7-7---|
|---0------------0----8--8---7--7-7-7---|
|---0----3-2-0-2-0----8--8---7--7-7-7---|
interlude:
|---------------------------------------------------------------------------|\   
|---------------------------------------------------------------------------| \
|---------------------------------------------------------------------------|  \
|---------------------------------------------------------------------------|   \ 
|-----0-----0-----0-----0-----0-----0/3-----3-----3-----3-----3-----3-----3-|    \
|--0-----0-----0-----0-----0-----0-------3-----3-----3-----3-----3-----3----|     |
|
|---------------------------------------------------------------------------|     |
|---------------------------------------------------------------------------|     | 
|---------------------------------------------------------------------------|     |  x2  
|---------------------------------------------------------------------------|     |
|-\0--------0-------0------0/1-----1\0-------0------------------------------|     |
|-------0-------0-------0-------0-------0-----------------------------------|     |
|
|---------------------------------------------------------------------------|     |
|---------------------------------------------------------------------------|    /
|---------------------------------------------------------------------------|   /
|---------------------------------------------------------------------------|  /
|--/3-------3------3/5-----5\3-----3\1-----1/3------------------------------| /
|-------3-------3-------3-------3-------3-------3---------------------------|/
Conversinon, software version 7.0,
Looking at life throught the eyes of a tire hub,
|---------------------------------------------------------------------------|
|---------------------------------------------------------------------------|
|---------------------------------------------------------------------------|
|---------------------------------------------------------------------------|
|---------------------------------------------------------------------------|
|-/0--0-0--0--0-0-0--3--3-3--3-3-3--3---------------------------------------|
`  ´ `  `  ´ ´ ´  ´  ´ ´  ´ ´ ´  ´
Eating seeds as a past time activity,
|---------------------------------------------------------------------------|
|---------------------------------------------------------------------------|
|---------------------------------------------------------------------------|
|---------------------------------------------------------------------------|
|---------------------------------------------------------------------------|
|-/0---0-0---0-0-0---3---3-3---3---3-3-3------------------------------------|
´   ´ ´   ´ ´ ´   ´   ´ 
The Toxicity of our city, of our city.                     
|---------------------------------------|
|---------------------------------------|
|*-------------------------------------*|
|*--------------------8--8---7--7-7-7--*|  x2
|---0------------0----8--8---7--7-7-7---|
|---0----3-2-0-2-0----8--8---7--7-7-7---|
New, what do own the world? How do you own disorder, disorder, disorder?
Now, somewhere, between the sacred silence, sacred silence and sleep.
|-----------------------------------------------------------------------|
|-----------------------------------------------------------------------|
|-----------------------------------------------------------------------|
|----------------------------------------------------8--8-8-8---7--7-7-7|
|----------------------------------------------------8--8-8-8---7--7-7-7|
|--3-2-0-2-0-0-3-2-0-2-0-0-3-2-0-2-0-0-3-2-0-2-0-0---8--8-8-8---7--7-7-7|
´ ´ ´ ´ ´ ´ ´ ´ ´ ´ ´ ´ ´ ´ ´ ´ ´ ´ ´ ´ ´ ´ ´ ´
Somewhere, between the sacred silence and sleep, disorder,
|---------------------------------------------------------------------------|
|---------------------------------------------------------------------------|
|---------------------------------------------------------------------------|
|---------------------8--8---7--7-7-7---------------------------------------|
|---0------------0----8--8---7--7-7-7---------------------------------------|
|---0----3-2-0-2-0----8--8---7--7-7-7---------------------------------------|
Disorder, disorder.  
|---------------------------------------------------------------------------|\   
|---------------------------------------------------------------------------| \
|---------------------------------------------------------------------------|  \
|---------------------------------------------------------------------------|   \ 
|-----0-----0-----0-----0-----0-----0/3-----3-----3-----3-----3-----3-----3-|    \
|--0-----0-----0-----0-----0-----0-------3-----3-----3-----3-----3-----3----|     |
|
|---------------------------------------------------------------------------|     |
|---------------------------------------------------------------------------|     | 
|---------------------------------------------------------------------------|     |  x2  
|---------------------------------------------------------------------------|     |
|-\0--------0-------0------0/1-----1\0-------0------------------------------|     |
|-------0-------0-------0-------0-------0-----------------------------------|     |
|
|---------------------------------------------------------------------------|     |
|---------------------------------------------------------------------------|    /
|---------------------------------------------------------------------------|   /
|---------------------------------------------------------------------------|  /
|--/3-------3------3/5-----5\3-----3\1-----1/3------------------------------| /
|-------3-------3-------3-------3-------3-------3---------------------------|/
More wood for their fire, loud neighbours.                                                                            
Flashlight reveries cought in the headlights of a truck.
|---------------------------------------------------------------------------|
|---------------------------------------------------------------------------|
|---------------------------------------------------------------------------|
|---------------------------------------------------------------------------|
|---------------------------------------------------------------------------|
|-/0--0-0--0--0-0-0--3--3-3--3-3-3--3---------------------------------------|
`  ´ `  `  ´ ´ ´  ´  ´ ´  ´ ´ ´  ´
Eating seeds as a past time activity,
|---------------------------------------------------------------------------|
|---------------------------------------------------------------------------|
|---------------------------------------------------------------------------|
|---------------------------------------------------------------------------|
|---------------------------------------------------------------------------|
|-/0---0-0---0-0-0---3---3-3---3---3-3-3------------------------------------|
´   ´ ´   ´ ´ ´   ´   ´ 
The Toxicity of our city, of our city.    
|---------------------------------------|
|---------------------------------------|
|*-------------------------------------*|
|*--------------------8--8---7--7-7-7--*|  x2
|---0------------0----8--8---7--7-7-7---|
|---0----3-2-0-2-0----8--8---7--7-7-7---|
New, what do own the world? How do you own disorder, disorder, disorder?
Now, somewhere, between the sacred silence, sacred silence and sleep.
|-----------------------------------------------------------------------|
|-----------------------------------------------------------------------|
|-----------------------------------------------------------------------|
|----------------------------------------------------8--8-8-8---7--7-7-7|
|----------------------------------------------------8--8-8-8---7--7-7-7|
|--3-2-0-2-0-0-3-2-0-2-0-0-3-2-0-2-0-0-3-2-0-2-0-0---8--8-8-8---7--7-7-7|
Somewhere, between the sacred silence and sleep, disorder,
|---------------------------------------------------------------------------|
|---------------------------------------------------------------------------|
|---------------------------------------------------------------------------|
|---------------------8--8---7--7-7-7---------------------------------------|
|---0------------0----8--8---7--7-7-7---------------------------------------|
|---0----3-2-0-2-0----8--8---7--7-7-7---------------------------------------|
Disorder, disorder.  
Solo:
|-----------------------------------------|
|-----------------------------------------|
|*---------------------------------------*|
|*---------------------------------------*|  x4
|-----------------------------------------|
|-12--12-12-12--12-12--12-15-12-12--14----|
|---------------------------|
|---------------------------|
|*-------------------------*|
|*-------------------------*|  x4
|---------------------------|
|-3-2-0--0-0-0-3-2-0--0-0-0-|
´  ´ ´ ´     ´  ´ ´ ´
|---------------------------|
|---------------------------|
|*-------------------------*|
|*-------------------------*|  x4
|---------------------------|
|-0--0--0-0-0--3-2-0-2------|
´  ´  ´ ´ ´
|---------------------------|
|---------------------------|
|*-------------------------*|
|*-------------------------*|  x4
|---------------------------|
|-3-2-0--0-0-0-3-2-0--0-0-0-|
´ ´ ´  ´ ´ ´ ´ ´ ´  ´ ´ ´
|---------------------------------------|
|---------------------------------------|
|*-------------------------------------*|
|*--------------------8--8---7--7-7-7--*|  x2
|---0------------0----8--8---7--7-7-7---|
|---0----3-2-0-2-0----8--8---7--7-7-7---|
New, what do own the world? How do you own disorder, disorder, disorder?
Now, somewhere, between the sacred silence, sacred silence and sleep.
|-----------------------------------------------------------------------|
|-----------------------------------------------------------------------|
|-----------------------------------------------------------------------|
|----------------------------------------------------8--8-8-8---7--7-7-7|
|----------------------------------------------------8--8-8-8---7--7-7-7|
|--3-2-0-2-0-0-3-2-0-2-0-0-3-2-0-2-0-0-3-2-0-2-0-0---8--8-8-8---7--7-7-7|
Somewhere, between the sacred silence and sleep, disorder,
|---------------------------------------------------------------------------|
|---------------------------------------------------------------------------|
|---------------------------------------------------------------------------|
|---------------------8--8---7--7-7-7---------------------------------------|
|---0------------0----8--8---7--7-7-7---------------------------------------|
|---0----3-2-0-2-0----8--8---7--7-7-7---------------------------------------|
Disorder, disorder.  
Outro:
|---------------------------|
|---------------------------|
|*-------------------------*|
|*-------------------------*|  x4
|---------------------------|
|--0---0-0--3-2-0-1---------| 
´   ´ ´  
When I became the sun,
I shone life into the man´s heart!
When I became the sun,
|---------------------------|
|---------------------------|
|---------------------------|
|---------------------------|  
|---------------------------|
|--0---0-0--3-2-0-2---------|
I shone life into the man´s heart!

Leave a Reply

Ce site utilise Akismet pour réduire les indésirables. En savoir plus sur comment les données de vos commentaires sont utilisées.