Radiohead

Radiohead – Reckoner

Tablature gratuite de la chanson “Reckoner” de Radiohead.

Tablature, accords, paroles:

Intro        
|-------------------|------------------|                                               
|--5---5---5---5---5|-8---8---8---8---8|
|-------------------|------------------|
|-------------------|------------------|
|-3---3---3---3-----|7---7---7---7-----|
|-------------------|------------------|

          *pick both
 D       hold+release                  
|-------------------|                                               
|--7---7---*7b7r--7.|
|-------------------|
|------------------.|
|-5---5---5---------|
|-------------------|

Couplets:
 C                     Em                   
|---------------------|-------------------|                                               
|*-5---5---5---5----10|-8---8---8---8---3-|
|---------------------|-------------------|
|*--------------------|-------------------|
|-3---3---3---3--3/7--|7---7---7---7--7/--|
|---------------------|-------------------|


 C                     Em                   
|---------------------|------------------|                                               
|--5---5---5---5-----8|-8---8---8---8---8|
|---------------------|------------------|
|-----------------5/9-|------------------|
|-3---3---3---3-------|7---7---7---7-----|
|---------------------|------------------|

          *pick both
 D       hold+release                  
|-------------------|                                               
|--7---7---*7b7r--7*|
|-------------------|
|------------------*|
|-5---5---5---------|
|-------------------|


Paroles:

Reckoner
Can you take it with you
Disavow the pleasure

You were not to blame for
Bittersweet distractors
Dare not speak his name
Did I cater to all you
All your needs?

Because we separate
it ripples our reflections
Because we separate
it ripples our reflections

Reckoner

Did I cater to all you
All your needs?

Leave a Reply

Ce site utilise Akismet pour réduire les indésirables. En savoir plus sur comment les données de vos commentaires sont utilisées.