Pink

Pink – Glitter in the air

Vidéo guitare et chant, tablature gratuite, accords, paroles de la chanson «Glitter in the air» de Pink.

Tablature, accords, paroles

Capo 1

Tuning: Standard


Intro + Vers:
(If you play the song with two guitar play that riff throughout the song)


e|------0-----0-----0-----0-----0-----0-----0-----0----------------------|
B|------0-----0-----0-----0-----0-----0-----0-----0----------------------|
G|-----------------------------------------------------------------------|
D|-----------------------------------------------------------------------|
A|------7-----6-----4-----2-----4-----2-----0----------------------------|
E|------------------------------------------------4----------------------|

        Have you ever fed a lover with just your hands?
        Close your eyes and trust it, just trust it




e|-----------------------------------------------------------------------|
G|-----------------------------------------------------------------------|
D|------4-6-7-----6-7-9-----7-9-11---------------------------------------|
A|-----------------------------------------------------------------------|
E|-----------------------------------------------------------------------|

or

e|-----------------------------------------------------------------------|
B|------7-9-10----9-10-12-----10-12-14-----------------------------------|
G|-----------------------------------------------------------------------|
D|-----------------------------------------------------------------------|
A|-----------------------------------------------------------------------|
E|-----------------------------------------------------------------------|

         Have you ever thrown a fist full of glitter in the air?
         Have you ever looked fear in the face  and said I just don't care



Chorus:

Chords used:

    B          A            E
e|-----3----------0-------------0-----------------------------------------|
B|-----5----------2-------------0-----------------------------------------|
G|-----5----------2-------------1-----------------------------------------|
D|-----5----------2-------------2-----------------------------------------|
A|-----3----------0-------------2-----------------------------------------|
E|-----3----------0-------------0-----------------------------------------|


B                       A
It's only half past the point of no return
   B
The tip of the ice burg
   A
The sun before the burn
   E
The thunder before lightning
   B
The breathe before the fraze
   A
Have you ever felt this way?


And then the riff again:

e|------0-----0-----0-----0-----0-----0-----0-----0----------------------|
B|------0-----0-----0-----0-----0-----0-----0-----0----------------------|
G|-----------------------------------------------------------------------|
D|-----------------------------------------------------------------------|
A|------7-----6-----4-----2-----4-----2-----0----------------------------|
E|------------------------------------------------4----------------------|



It’s for the 2nd vers the same as for the 1st:

Have you ever hated yourself for staring at the phone?
You're whole life waiting on the ring to prove you're not alone

Have you ever been touch so gently you had to cry?
Have you ever invited a stranger to come inside?

Chorus:
It's only half past the point of oblivion
The hourglass on the table
The walk before the run
The breathe before the kiss
And the fear before the flames
Have you ever felt this way?


the riff again:

e|------0-----0-----0-----0-----0-----0-----0-----0----------------------|
B|------0-----0-----0-----0-----0-----0-----0-----0----------------------|
G|-----------------------------------------------------------------------|
D|-----------------------------------------------------------------------|
A|------7-----6-----4-----2-----4-----2-----0----------------------------|
E|------------------------------------------------4----------------------|

       La    La    La    La    La    La    La    La




A              B
There you are, sitting in the garden
A                       B
Clutching my coffee,
           E           C
Calling me sugar
              E        A        E       C       A       E
You called me sugar



And again the riff:

e|------0-----0-----0-----0-----0-----0-----0-----0----------------------|
B|------0-----0-----0-----0-----0-----0-----0-----0----------------------|
G|-----------------------------------------------------------------------|
D|-----------------------------------------------------------------------|
A|------7-----6-----4-----2-----4-----2-----0----------------------------|
E|------------------------------------------------4----------------------|

Have you ever wished for an endless night?
Laugh so the moon and the stars and pulled that rope tight

Have you ever held your breathe and asked yourself will it ever get better than tonight?
Tonight

Leave a Reply

Ce site utilise Akismet pour réduire les indésirables. En savoir plus sur comment les données de vos commentaires sont utilisées.