Nirvana

Nirvana – Rape me

Tablature Rape me de Nirvana. Vidéo guitare et chant, partition gratuite, accords et paroles de la chanson.

Tablature : accords, paroles

Intro:

e|-0-0-X-X-----0-0-X-X-----|
B|-0-0-X-X-----0-0-X-X-----|
G|-2-2-X-X-5-5-0-0-X-X-----|
D|-2-2-X-X-5-5-2-2-X-X-5-5-|
A|-0-0-X-X-3-3-2-2-X-X-5-5-|
E|-0-0-X-X-----0-0-X-X-3-3-|

Couplet 1:

e|-------------------|
B|-------------------|
G|---2---5-----------|
D|--2-2-5-5--2----5--|
A|-0---3----2-2--5-5-|
E|---------0----3----|

Refrain:

e|-0-0------0-0------|
B|-0-0------0-0------|
G|-2-2--5-5-0-0------|
D|-2-2--5-5-2-2--5-5-|
A|-0-0--3-3-2-2--5-5-|
E|-0-0------0-0--3-3-|

Couplet 2:

e|-0-0-X-X-----0-0-X-X-----|
B|-0-0-X-X-----0-0-X-X-----|
G|-2-2-X-X-5-5-0-0-X-X-----|
D|-2-2-X-X-5-5-2-2-X-X-5-5-|
A|-0-0-X-X-3-3-2-2-X-X-5-5-|
E|-0-0-X-X-----0-0-X-X-3-3-|

Bridge:

e|-------------------------0-0-0-|
B|-------------------------0-0-0-|
G|-6-6-6-6-6-6-6-6-4-4-4-4-2-2-0-|
D|-6-6-6-6-6-6-6-6-4-4-4-4-2-2-2-|
A|-4-4-4-4-4-4-4-4-2-2-2-2-0-0-2-|
E|-------------------------0-0-0-|

Riff 1:

e|------------------------------------------------0-|
B|------------------------------------------------0-|
G|--------------------------------------------------|
D|-4-4-4-4-4-4-4-4-6-6-6-6-6-6-6-6-2----------------|
A|-4-4-4-4-4-4-4-4-6-6-6-6-6-6-6-6-2----------------|
E|-2-2-2-2-2-2-2-2-4-4-4-4-4-4-4-4-0----------------|



Paroles:

Rape me,
Rape me my friend.
Rape me,
Rape me again.

Im not the only one,
Ahhhh.
Im not the only one.
Ahhhh.

Hate me,
Do and do it again.
Waste me,
Rape me my friend.

Refrain

My favorite inside source.
I kiss your open sores.
Apreciate your concern.
You're gunna stink and burn.

Rape me,
Rape me my friend.
Rape me,
Rape me again.

Refrain

Rape me.

Leave a Reply

Ce site utilise Akismet pour réduire les indésirables. En savoir plus sur comment les données de vos commentaires sont utilisées.