Neil Young

Neil Young – Unknown legend

Tablature de la chanson « Unknown legend » de Neil Young.

Intro Riff:
                      
-----------3-------------------------3------------------3--
-----------0-------------------------0------------------0--
-----------0-------------------------0------------------0--
--------0--0---------------------0---0---------------0--0--
-2--3------2---------------2--3------2---------2--3-----2--
-----------3-------------------------3------------------3--


-----------0----------------------------3---
-----------1----------------------------0--
-----------0----------------------------0---
-----------2--------------------0-------0---
-3--2------3----------------------------2
-------0---0--------------0--3----------3


              G
She used to work in a diner, never saw a woman look finer
                                                  C
I used to order just to see her float across the floor.
                   G
She grew up in a small town, never put her roots down.
                             C
Daddy kept movin so she did too.


REFRAIN:
                          G                   C       G
Somewhere on a desert highway, she rides a harley davidson
                                       C                
Her long blonde hair  flyin' in the wind.
                               G
She's been runnin half of her life.
                  C       G
The chrome and steel she rides,
                                    C                       G
collidin' with the very air she breathes, the air she breathes.

RIFF INTRO

You know it's ain't easy, you got to hold on.
She was an unknown legend in her time.
Now whe's dressin' two kids, lookin' for that magic kiss.
She gets that far away look in her eyes.

REFRAIN

Leave a Reply

Ce site utilise Akismet pour réduire les indésirables. En savoir plus sur comment les données de vos commentaires sont utilisées.