Neil Young

Neil Young – The needle and the damage done

Vidéo guitare et chant, tablature gratuite, accords, paroles de la chanson «The needle and the damage done» de Neil Young.
Tablature, accords, paroles


Intro:
|---2---0---------|-------0-------0-|-------0-------0-|-------0---------|
|-----------3---3-|---3-3-----3---3-|---3---3---3---3-|---3-3-3---3---0-|
|-----2-------2-2-|-----2-------2---|---0-0-------0-0-|---0-0-----0-----|
|-0---0---0---0---|-----0-------0---|-0---0---0---0-0-|-0---0---0---0---|
|-----------------|-3-------3-------|-2-------2-------|-1-------1---1---|
|-----------------|-----------------|-----------------|-----------------|


|---------0---0-----0-|---0---0---0---0-|---0---0---0----0-|---0---0---0---0-|
|---1-----1---1-----1-|-1-1---1---1---0-|---0-----------(0)|---0----------(0)|
|-----------0---0h2---|-3---2---0-------|-2---2------------|-1---------------|
|-2---0h2-------------|-------------3---|-----2---2---2----|-2---2-----------|
|-3-------------------|-----------------|---------2--(2)---|-----2---2---0---|
|---------------------|-----------------|-------------0-(0)|---------0-------|


Paroles, accords :

D                           D/C
I caught you knocking at my cellar door
D/B                    D/Bb
I love you baby, can I have some more
C   F              Esus4   E
Ooo ooo the damage done


D                    D/C
I hit the city and I lost my band
D/B                         D/Bb
I watched the needle take another man
C     F                Esus4   E
Gone, gone, the damage done


[Rejouer intro guitare]


D                         D/C
I sing the song because I loved the man
D/B                           D/Bb
I know that some of you won't understand
C     F                  Esus4   E
Milk, blood to keep from running out


D                            D/C
I've seen the needle and the damage done
D/B                    D/Bb
A little part of it in everyone
C                         F            Esus4   E
But every junkie's like a setting sun

Leave a Reply

Ce site utilise Akismet pour réduire les indésirables. En savoir plus sur comment les données de vos commentaires sont utilisées.