Muse

Muse – Panic station

Tablature de la chanson “Panic station” de Muse.

Intro basse et guitare:
e|-----------------------------------12-12-12-12-|
B|-----------------------------------12-12-12-12-|
G|-----------------------------------12-12-12-12-|X2
D|----------------7/9----------------------------|
A|----------------5/7----------------------------|
E|-12/0--0--0--0--------0--0--0--0---------------|
Couplet:
|----------------------------------12-12-12-12-|
|----------------------------------12-12-12-12-|
|----------------------------------12-12-12-12-|X2
|--------------7/9-----------------------------|
|--------------5/7-----------------------------|
|-----0--0--0--------0--0--0--0----------------|
|--------------------------------------------------------------------------12-12-12-12-|
|--------------------------------------------------------------------------12-12-12-12-|
|------------------------------------2-2-2-2-------------------------------12-12-12-12-|
|----------------13\-----------------5-5-5-5------------7/9----------------------------|
|----------------11\-----------------5-5-5-5------------5/7----------------------------|
|-----5--5--5--------3--3--3--3----------------0--0--0--------0--0--0--0---------------|
Refrain:
Basse 0:28:
G|---------------------------------------------------------------------------|
D|---2---2---2---2---5---5---5---5---7---7---7---9---10---10----12----14-----|
A|---------------------------------------------------------------------------|
E|-0---0---0---0---3---3---3---3---5---5---5---7---8----8----10----12--------|
Guitare 0:38:
e|-7-7-x-x--7-7-x-7-x-7---7-7-x-x--7-7-x-7-x-7---9--9--x-x--9--9--x-9--x-8~--|
B|-8-8-x-x--8-8-x-8-x-8---8-8-x-x--8-8-x-8-x-8---10-10-x-x--10-10-x-10-x-8~--|
G|-9-9-x-x--9-9-x-9-x-9---9-7-x-x--7-7-x-7-x-7---9--9--x-x--9--9--x-9--x-9~~-|
D|---------------------------------------------------------------------------|
A|---------------------------------------------------------------------------|
E|---------------------------------------------------------------------------|
Riff 0:48:
|---------------------------------------------------------------------------|
|---------------------------------------------------------------------------|
|--9\--9---------9-----------12--7h9---------9-----------12--7h9------------|
|--9\-----9--12-----9h12/14-----------9--12-----9h12/14---------------------|
|--7\-----------------------------------------------------------------------|
|--0x-----------------------------------------------------------------------|
|-------------------------------12-12-12-12-15-15-15-15---------------------|
|-------------------------------12-12-12-12-15-15-15-12---------------------|
|----------9-----------12--7h9--12-12-12-12-12-12-12-12---------------------|
|--9---12-----9h12/14-------------------------------------------------------|
|---------------------------------------------------------------------------|
|---------------------------------------------------------------------------|
Couplet:
|----------------------------------12-12-12-12-|
|----------------------------------12-12-12-12-|
|----------------------------------12-12-12-12-|X2
|--------------7/9-----------------------------|
|--------------5/7-----------------------------|
|-----0--0--0--------0--0--0--0----------------|
|--------------------------------------------------------------------------12-12-12-12-|
|--------------------------------------------------------------------------12-12-12-12-|
|------------------------------------2-2-2-2-------------------------------12-12-12-12-|
|----------------13\-----------------5-5-5-5------------7/9----------------------------|
|----------------11\-----------------5-5-5-5------------5/7----------------------------|
|-----5--5--5--------3--3--3--3----------------0--0--0--------0--0--0--0---------------|
Refrain:
|-7-7-x-x--7-7-x-7-x-7---7-7-x-x--7-7-x-7-x-7---9--9--x-x--9--9--x-9--x-9---|
|-8-8-x-x--8-8-x-8-x-8---8-8-x-x--8-8-x-8-x-8---10-10-x-x--10-10-x-10-x-10--|
|-9-9-x-x--9-9-x-9-x-9---9-7-x-x--7-7-x-7-x-7---9--9--x-x--9--9--x-9--x-9---|
|---------------------------------------------------------------------------|
|---------------------------------------------------------------------------|
|---------------------------------------------------------------------------|
|-8-8-x-x--8-8-x-8-x-8------------------------------------------------------|
|-8-8-x-x--8-8-x-8-x-8------------------------------------------------------|
|-9-9-x-x--9-9-x-9 x-9------------------------------------------------------|
|---------------------------------------------------------------------------|
|---------------------------------------------------------------------------|
|---------------------------------------------------------------------------|
|-7-7-x-x--7-7-x-7-x-7---7-7-x-x--7-7-x-7-x-7---9--9--x-x--9--9--x-9--x-8~--|
|-8-8-x-x--8-8-x-8-x-8---8-8-x-x--8-8-x-8-x-8---10-10-x-x--10-10-x-10-x-8~--|
|-9-9-x-x--9-9-x-9-x-9---9-7-x-x--7-7-x-7-x-7---9--9--x-x--9--9--x-9--x-9~~-|
|---------------------------------------------------------------------------|
|---------------------------------------------------------------------------|
|---------------------------------------------------------------------------|
Riff:
|---------------------------------------------------------------------------|
|---------------------------------------------------------------------------|
|----9---------9-----------12--7h9---------9-----------12--7h9--------------|
|-------9--12-----9h12/14-----------9--12-----9h12/14-----------------------|
|---------------------------------------------------------------------------|
|---------------------------------------------------------------------------|
|---------------------------------------------------------------------------|
|---------------------------------------------------------------------------|
|----------9-----------14--7h9---------9-----------11--7h9------------------|
|--9---12-----9h12/14-----------9--12-----9h12/14---------------------------|
|---------------------------------------------------------------------------|
|---------------------------------------------------------------------------|
|---------------------------------------------------------------------------|
|---------------------------------------------------------------------------|
|----9---------9-----------12--7h9---------9-----------12--7h9--------------|
|-------9--12-----9h12/14-----------9--12-----9h12/14-----------------------|
|---------------------------------------------------------------------------|
|---------------------------------------------------------------------------|
|---------------------------------------------------------------------------|
|---------------------------------------------------------------------------|
|----------9-----------14--7h9---------9-----------11~~~--------------------|
|--9---12-----9h12/14-----------9--12-----9h12/14---------------------------|
|---------------------------------------------------------------------------|
|---------------------------------------------------------------------------|
Solo:
|----------------------------------|--------------------------------|
|----------------------------------|--------------------------------|
|----------------------------------|--------------------------------|x3
|----------------------------------|--------------------------------|
|----------------------------------|--------------------------------|
|-12-0-11-0-10-0-9-0-8-0-7-0-6-7-0-|-0-12-0-11-0-10-0-9-0-8-0-6-7---|
|----------------------------------|--------------------------------|
|----------------------------------|--------------------------------|
|----------------------------------|--------------------------------| 
|----------------------------------|--------------------------------|
|----------------------------------|--------------------------------|
|-12-0-11-0-10-0-9-0-8-0-7-0-6-7-0-|-0-12-0-11-0-10-0-9-0-8-0-6-7---|
|------------------------------------------|------------------------------------------|
|--12----------------------------12--------|-12---------------------------12----------|
|------12------------------12---------12---|-----12------------------12-------12------|
|----------14--------14--------------------|----------12--------12--------------------|
|---------------14-------------------------|---------------14-------------------------|
|------------------------------------------|------------------------------------------|
>X4
|------------------------------------------|------------------------------------------|
|-14---------------------------14----------|-13---------------------------13----------|
|-----14------------------14-------14------|-----12------------------12-------12------|
|----------14--------14--------------------|----------14--------14--------------------|
|---------------16-------------------------|---------------15-------------------------|
|------------------------------------------|------------------------------------------|
|------------------------------------------|------------------------------------------|
|--12----------------------------12--------|-12---------------------------12----------|
|------12------------------12---------12---|-----12------------------12-------12------|
|----------14--------14--------------------|----------12--------12--------------------|
|---------------14-------------------------|---------------14-------------------------|
|------------------------------------------|------------------------------------------|
>X4
|------------------------------------------|------------------------------------------|
|-14---------------------------14----------|-13---------------------------13----------|
|-----14------------------14-------14------|-----12------------------12-------12------|
|----------14--------14--------------------|----------14--------14--------------------|
|---------------16-------------------------|---------------15-------------------------|
|------------------------------------------|------------------------------------------|
Refrain:
|---------------------------------------------------------------------------|
|---------------------------------------------------------------------------|
|---21~------16-------19~-------16-------18~--------17~---------------------|x2
|---------------------------------------------------------------------------|
|---------------------------------------------------------------------------|
|---------------------------------------------------------------------------|
Outro:
|----------------------------------12-12-12-12-|
|----------------------------------12-12-12-12-|
|----------------------------------12-12-12-12-|X2
|--------------7/9-----------------------------|
|--------------5/7-----------------------------|
|-----0--0--0--------0--0--0--0----------------|
| /   slide up
| \   slide down
| h   hammer-on
| p   pull-off
| ~   vibrato
| +   harmonic
| x   Mute note
| b   Bend
| pb  Pre-bend
| br  Bend release
| pbr Pre-bend release
| brb Bend release bend

Leave a Reply

Ce site utilise Akismet pour réduire les indésirables. En savoir plus sur comment les données de vos commentaires sont utilisées.