Matthieu Chedid

Matthieu Chedid – Mojo

Tablature guitare de la chanson “Mojo” de Matthieu Chedid.

Clip vidéo

Tablature, accords:

Intro:   D#  F#  F#  C#    (x4)


Riff COUPLETS:

  D#    F#            C#
|-----------------------|-------|
|-8-8---11-11---11-11-6-|-------|
|-8-8---11-11---11-11-6-|-------|
|-8-8---11-11---11-11-6-|-------| x3
|-6-6---9--9--x-9--9--4-|-----6-|
|-----------------------|-6-9---|

puis:  (sur couplet 1 uniquement)

  D#    F#            C#      D#
|-----------------------|------------------|
|-8-8---11-11---11-11-6-|-6-6---8--8-8---8-|
|-8-8---11-11---11-11-6-|-6-6---8--8-8---8-|
|-8-8---11-11---11-11-6-|-6-6---8--8-8-8-8-| 
|-6-6---9--9--x-9--9--4-|-4-4-6--------6---|
|-----------------------|------------------|


COUPLET 1:
Pourquoi toutes ces caresses inegales
Quand elles ressentent mes ondes animales
Est-ce que c'est bien ? Est-ce que c'est mal ?
Laisse-toi aller, c'est qu'ca c'est le Mojo

COUPLET 2:
Session de redorage malgre moi
J'ai pourtant ete sage jusque la 
Est-ce qu'il fait froid ? Est-ce qu'il fait chaud ?
Laisse-toi aller, c'est qu'ca c'est le Mojo

Est-ce qu'il est tard ?  Est-ce qu'il est tot ?
Allez viens, laisse-toi aller, c'est qu'ca c'est le Mojo

INTERLUDE:
Ca c'est le Mojo
C'est q'ca c'est le
Mojo, Mojo, Mojo...

COUPLET 3:
Pourquoi toutes ces caresses inegales
Quand elles ressentent mes ondes animales
Est-ce qu'il est moche ? Est-ce qu'il est beau ?
Allez oui laisse-toi aller, c'est qu'ca c'est le Mojo

COUPLET 4:
Cette nuit risque d'etre fatale
Belle à craquer, elle est cannibale
Est-ce qu'il est vrai ? Est-ce qu'il est faux ?
Oh oui laisse-toi aller, c'est qu'ca c'est le Mojo

Ca c'est le Mojo
C'est que ca c'est le Mojo

Leave a Reply

Ce site utilise Akismet pour réduire les indésirables. En savoir plus sur comment les données de vos commentaires sont utilisées.