Lenny Kravitz

Lenny Kravitz – Fields of Joy

Vidéo guitare et chant, tablature gratuite, accords, paroles de la chanson «Fields of Joy» de Lenny Kravitz.

Tablature, accords, paroles

Intro
e----------------------------------------------------
b----------------------------------------------------
g----------------------------------------------------
d----------------------------------------------------
a-------9---------9---------9---7----7--6--6---------
e--7--------5---------4---------3----3--3--3--------- 
heavy bit
e-------------------------------------------------------------
b-------------------------------------------------------------
g----------------------7--7--x-x-x--9--9--x-x-x---------------
d--9---9---x--x--x--x--7--7--x-x-x--9--9--x-x-x--5--x--5-x--7-
a--9---9---x--x--x--x--5--5--x-x-x--7--7--x-x-x--5--x--5-x--7-
e--7---7---x--x--x--x----------------------------3--x--3-x--5-
Let's wander slowly through the fields 
Slowly, slowly through the fields
I touch the leaves that touch the sky
Just you and I, through the fields of joy
All trouble slowly fades away
Slowly slowly fades away
I hold your hand inside my hand
Across the land - through fields of joy
The sound of music that we hear
The blend of colours in the air
All cities, mountains disappear from view
All truth and beauty near to me and you
With you through the fields
With you through the fields
With you through the fields
The fields of Joy
Let's wander slowly through the fields 
Slowly, slowly through the fields
I know our love will never die
Just you and I
Through fields of Joy
Through fields of Joy
Solo:
-------14--------14--------14--------14--------14--------14--------14-------
17(19)----17(19)----17(19)----17(19)----17(19)----17(19)----17(19)----15h17-
----------------------------------------------------------------------------
----------------------------------------------------------------------------
----------------------------------------------------------------------------
----------------------------------------------------------------------------
------17---------------------------------------------------------------
17(19)--(19)17--15--(18)17-15-----17(19)--15-17-15-17p15---------------
------------------------------16~~-----------------------14-16-14h16p14
-----------------------------------------------------------------------
-----------------------------------------------------------------------
-----------------------------------------------------------------------
------------------------------11(12)---13p12------------14h17---------14
--------------------------10--------12-------12--17(19)-------17(19)----
----14------7--7(9)---9h11--11------------------------------------------
-16---16-14-7------h9---------------------------------------------------
------------------------------------------------------------------------
------------------------------------------------------------------------
----------------19------------------19----------19----------19---------
-18p17-15h17p15-19--(19)18--17--15--19s18-17p15-19s18-17p15-19s18-17p15
-----------------------------------------------------------------------
-----------------------------------------------------------------------
-----------------------------------------------------------------------
-----------------------------------------------------------------------
-19----------16(17)--14-12-/12-12h14p12----12-------------------------
-19s18-17p15---------------/12----------15----12-15----12-15-14-15p14-
----------------------------------------------------14----14----------
----------------------------------------------------------------------
---------------------------------------------------------------------
---------------------------------------------------------------------
-------------7------------------------------------------7------7------
-------12-10--10p7-10p7--7-----7h10--7h10--7h10p7-7-10--7-10p7-7-10p7-
14(16)-11--------------9--9p7-9-----9-----7---------------------------
----------------------------------------------------------------------
----------------------------------------------------------------------
----------------------------------------------------------------------
seven times
-7------7------7------7------7-----------10-7h9h10-7h9h10-7h9h10-7h9h10-
-7-10p7-7-10p7-7-10p7-7-10p7-7-10p7-10p7--------------------------------
------------------------------------------------------------------------
------------------------------------------------------------------------
-------------------------------------------------------------------------
-------------------------------------------------------------------------
thirteen
-7h9h10-7h9h10-7h9h10-7h9h10-7h9h10-7h9h10-7h9h10-7h9h10-7h9h10-7h9-7h9h10-
---------------------------------------------------------------------------
---------------------------------------------------------------------------
---------------------------------------------------------------------------
---------------------------------------------------------------------------
---------------------------------------------------------------------------
9-10p7---7------------7------------------------------7-7-------7-7----
------10--10p7-10(12)-7-10-7-10p7--7-----------------7-7-------7-7----
---------------------------------9--9p7-9p7-7--9(11)-----9(11)--------
-------------------------------------------9-9------------------------
----------------------------------------------------------------------
----------------------------------------------------------------------
------7-7-------7-7-------7-------7-------7-------7-------------5------5---
------7-7-------7-7-------7-------7-------7-------7---------6h7-6--6-7-6---
9(11)-----9(11)-----9(11)---9(11)---9(11)---9(11)---(11)9-9----------------
---------------------------------------------------------------------------
---------------------------------------------------------------------------
---------------------------------------------------------------------------
eight
----5------5------5------5------5------5-5--------------------------------7---
6h7-6--6h7-6--6h7-6--6h7-6--6h7-6--6h7-6----7-5-7-5------------------7-10-----
----------------------------------------------------4-9(11)-7--9-7------------
-------------------------------------------------------------------9----------
------------------------------------------------------------------------------
------------------------------------------------------------------------------
----7-10-12(14)--14(12)-10--12-13-10-12-|12-13p12-------13-12-13p12--------
-10-------------------------------12----|--------15p12-------------15p12---
---------------------------------------------------------------------------
---------------------------------------------------------------------------
---------------------------------------------------------------------------
---------------------------------------------------------------------------
-13-12-13p12-------13-12-13p12------16(17)--14----12-12(13)--12(13)-|-14----
------------15p12-------------15p12---------12-15----11(12)---------|-12-15~
----------------------------------------------------------------------------
----------------------------------------------------------------------------
----------------------------------------------------------------------------
----------------------------------------------------------------------------
-12-14-----12h14-----12h14---12h14---12h14---12h14---12h14p12---12------12
-------15-------15-15------15------15------15------15---------15---12h15--
-------------------14-----------------------------------------------------
--------------------------------------------------------------------------
--------------------------------------------------------------------------
--------------------------------------------------------------------------
--------------
-12h15--------
-------14(16)-
--------------
--------------
--------------

Leave a Reply

Ce site utilise Akismet pour réduire les indésirables. En savoir plus sur comment les données de vos commentaires sont utilisées.