Katrina & The Waves

Katrina & The Waves – Walking On Sunshine

Vidéo guitare et chant, tablature gratuite, accords, paroles de la chanson “Walking On Sunshine” de Katrina & The Waves.

Tablature, accords, paroles

Riff principal (en boucle)

E|----------------------------------------------|
B|----------------------------------------------|
G|---------8-8-8--10-10-10--8-8-8---------------|
D|--8-8-8--8-8-8--10-10-10--8-8-8---------------|
A|--8-8-8--6-6-6---8-8--8---6-6-6---------------|
E|--6-6-6---------------------------------------|


E|------------------------------------------------|
B|------------------------------------------------|
G|--10-10-10-10-10-10-10-10-10--8-8-8-8-8-8-8-8-8-|
D|--10-10-10-10-10-10-10-10-10--8-8-8-8-8-8-8-8-8-|
A|--8--8--8--8--8--8--8--8--8---6-6-6-6-6-6-6-6-6-|
E|------------------------------------------------|

Paroles

Oh! Ohhhh yeeeh
I used to think maybe you loved me now baby I'm sure
And I just cant wait till the day when you knock on my door
Now everytime I go for the mailbox , gotta hold myself down
Cos I just wait till you write me your coming around

I'm walking on sunshine , wooah
I'm walking on sunshine, woooah
I'm walking on sunshine, woooah
and don't it feel good!!

Hey , alright now
and dont it feel good!!
hey yeh

I used to think maybe you loved me, now I know that its true
and I don't want to spend all my life , just in waiting for you
now I don't want u back for the weekend
not back for a day , no no no
I said baby I just want you back and I want you to stay

woah yeh!
I'm walking on sunshine , wooah
I'm walking on sunshine, woooah
I'm walking on sunshine, woooah
and don't it feel good!!

Hey , alright now
and don't it feel good!!
hey yeh ,oh yeh
and don't it feel good!!

walking on sunshine
walking on sunshine

I feel the love,I feel the love, I feel the love that's really real
I feel the love, I feel the love, I feel the love that's really real

I'm on sunshine baby oh
I'm on sunshine baby oh

I'm walking on sunshine wooah
I'm walking on sunshine wooah
I'm walking on sunshine wooah

and don't it feel good!!
I'll say it again now
and don't it feel good!!

Leave a Reply

Ce site utilise Akismet pour réduire les indésirables. En savoir plus sur comment les données de vos commentaires sont utilisées.