Kansas

Kansas – Dust in the wind

Vidéo guitare et chant, tablature, accords, paroles de la chanson “Dust in the wind” de Kansas.

Tablature : accords, paroles

     C              C7M               Cadd9          C
E||--------------------------------|--------------------------------|
B||--1--------1-----0--------0-----|--3--------3-----1--------1-----|
G||-------0-------0------0-------0-|-------0-------0------0-------0-|
D||-----2-------2------2-------2---|-----2-------2------2-------2---|
A||--3------3-------3------3-------|--3------3-------3------3-------|
E||--------------------------------|--------------------------------|
Asus2          Asus4             Am             Asus2
--------------------------------|--------------------------------|
--0--------0-----3--------3-----|--1--------1-----0--------0-----|
-------2-------2------2-------2-|-------2-------2------2-------2-|
-----2-------2------2-------2---|-----2-------2------2-------2---|
--0------0-------0------0-------|--0------0-------0------0-------|
--------------------------------|--------------------------------|
Cadd9          C                 C7M            Cadd9
--------------------------------|--------------------------------|
--3--------3-----1--------1-----|--0--------0-----3--------3-----|
-------0-------0------0-------0-|-------0-------0------0-------0-|
-----2-------2------2-------2---|-----2-------2------2-------2---|
--3------3-------3------3-------|--3------3-------3------3-------|
--------------------------------|--------------------------------|
Am             Asus2             Asus4          Am        G/B
--------------------------------|------------------------------|
--1--------1-----0--------0-----|--3--------3-----1------1--3--|
-------2-------2------2-------2-|-------2-------2------2-------|
-----2-------2------2-------2---|-----2-------2------2---------|
--0------0-------0------0-------|--0------0-------0------0--2--|
--------------------------------|------------------------------|
C              G/B               Am
--------------------------------|--------------------------------|
--1--------1-----3--------3-----|--1--------1-----1--------1-----|
-------0-------0------0-------0-|-------2-------2------2-------0-|
-----2-------2------0-------0---|-----2-------2------2-------2---|
--3------3-------2------2-------|--0------0-------0------0-------|
--------------------------------|--------------------------------|
G              Dm7               Am                       G/B
-----------------1--------1-----|--0---------------------------|
--0--------0----------1-------1-|-----------1-----1------1--3--|
-------0-------0----2-------2---|-------2-------2------2-------|
-----0-------0---0------0-------|-----2-------2------2---------|
--------------------------------|--0------0-------0------0--2--|
--3------3----------------------|------------------------------|
C              G/B               Am
--------------------------------|--0-----------------------------|
--1--------1-----3--------3-----|-----------1-----1--------1-----|
-------0-------0------0-------0-|-------2-------2------2-------2-|
-----2-------2------0-------0---|-----2-------2------2-------2---|
--3------3-------2------2-------|--0------0-------0------0-------|
--------------------------------|--------------------------------|
G              Dm7               Am
-----------------1--------1-----|--0-----------------------------|
--0--------0----------1-------1-|-----------1-----1--------1-----|
-------0-------0----2-------2---|-------2-------2------2-------2-|
-----0-------0---0------0-------|-----2-------2------2-------2---|
--------------------------------|--0------0-------0------0-------|
--3------3----------------------|--------------------------------|
D/F#           G                 Am             Am/G
--------------------------------|--------------------------------|
--3--------3-----0--------0-----|--1--------1-----1--------1-----|
-------2-------2------0-------0-|-------2-------2------2-------2-|
-----0-------0------0-------0---|-----2-------2------2-------2---|
--------------------------------|--0------0----------------------|
--2------2-------3------3-------|-----------------3------3-------|
D/F#           G                 Am                    G/B
--------------------------------|-----------------------------|
--3--------3-----0--------0-----|--0h1-------0-----0h1---3----|
-------2-------2------0-------0-|--------2-------2------------|
-----0-------0------0-------0---|------2-------2--------------|
--------------------------------|--0-------0-------0-----2----|
--2------2-------3------3-------|-----------------------------|
C              G/B               Am
--------------------------------|--0-----------------------------|
--1--------1-----3--------3-----|-----------1-----1--------1-----|
-------0-------0------0-------0-|-------2-------2------2-------0-|
-----2-------2------0-------0---|-----2-------2------2-------2---|
--3------3-------2------2-------|--0------0-------0------0-------|
--------------------------------|--------------------------------|
G              Dm7               Am                       G/B
-----------------1--------1-----|--0---------------------------|
--0--------0----------1-------1-|-----------1-----1------1--3--|
-------0-------0----2-------2---|-------2-------2------2-------|
-----0-------0---0------0-------|-----2-------2------2---------|
--------------------------------|--0------0-------0------0--2--|
--3------3----------------------|------------------------------|
C              G/B               Am
--------------------------------|--0-----------------------------|
--1--------1-----3--------3-----|-----------1-----1--------1-----|
-------0-------0------0-------0-|-------2-------2------2-------0-|
-----2-------2------0-------0---|-----2-------2------2-------2---|
--3------3-------2------2-------|--0------0-------0------0-------|
--------------------------------|--------------------------------|
G              Dm7               Am
-----------------1--------1-----|--0-----------------------------|
--0--------0----------1-------1-|-----------1-----1--------1-----|
-------0-------0----2-------2---|-------2-------2------2-------2-|
-----0-------0---0------0-------|-----2-------2------2-------2---|
--------------------------------|--0------0-------0------0-------|
--3------3----------------------|--------------------------------|
D/F#           G                 Am             Am/G
--------------------------------|--------------------------------|
--3--------3-----0--------0-----|--1--------1-----1--------1-----|
-------2-------2------0-------0-|-------2-------2------2-------2-|
-----0-------0------0-------0---|-----2-------2------2-------2---|
--------------------------------|--0------0----------------------|
--2------2-------3------3-------|-----------------3------3-------|
D/F#           G                 Amadd9
--------------------------------|--------------------------------|
--3--------3-----0--------0-----|-----------0-----0--------0-----|
-------2-------2------0-------0-|-------5-------5------5-------0-|
-----0-------0------0-------0---|-----7-------7------7-------7---|
--------------------------------|--0------0-------0------0-------|
--2------2-------3------3-------|--------------------------------|
G/A                              F(#11)/A
--------------------------------|--------------------------------|
--0--------0-----0--------0-----|-----------0-----0--------0---1-|
-------7-------7------7-------7-|-------5-------5------5---------|
-----5-------5------5-------5---|-----3-------3------3-------3---|
--0------0-------0------0-------|--0------0-------0------0-------|
--------------------------------|--------------------------------|
F6(#11)/A      F(#11)/A          Amadd9
--------------------------------|--------------------------0-----|
--3--------3-----0--------0-----|--0--------0-----0--------------|
-------5-------5------5-------5-|-------5-------5------5-------5-|
-----3-------3------3-------3---|-----7-------7------7-------7---|
--0------0-------0------0-------|--0------0-------0------0-------|
--------------------------------|--------------------------------|
G/A                              F(#11)/A
--------------------------0-----|--------------------------------|
--0--------0-----0--------------|--0--------0-----0--------0-----|
-------7-------7------7-------7-|-------5-------5------5-------5-|
-----5-------5------5-------5---|-----3-------3------3-------3---|
--0------0-------0------0-------|--0------0-------0------0-------|
--------------------------------|--------------------------------|
F6(#11)/A      F(#11)/A          C              C7M
--------------------------------|--------------------------------|
--3--------3-----0--------0-----|--1--------1-----0--------0-----|
-------5-------5------5-------5-|-------0-------0------0-------0-|
-----3-------3------3-------3---|-----2-------2------2-------2---|
--0------0-------0------0-------|--3------3-------3------3-------|
--------------------------------|--------------------------------|
Cadd9          C                 Asus2          Asus4
--------------------------------|--------------------------------|
--3--------3-----1--------1-----|--0--------0-----3--------3-----|
-------0-------0------0-------0-|-------2-------2------2-------2-|
-----2-------2------2-------2---|-----2-------2------2-------2---|
--3------3-------3------3-------|--0------0-------0------0-------|
--------------------------------|--------------------------------|
Am             Asus2             Cadd9          C
--------------------------------|--------------------------------|
--1--------1-----0--------0-----|--3--------3-----1--------1-----|
-------2-------2------2-------2-|-------0-------0------0-------0-|
-----2-------2------2-------2---|-----2-------2------2-------2---|
--0------0-------0------0-------|--3------3-------3------3-------|
--------------------------------|--------------------------------|
C7M            Cadd9             Am             Asus2
--------------------------------|--0--------------0--------------|
--0--------0-----3--------3-----|--1--------1-----0--------0-----|
-------0-------0------0-------0-|-------2-------2------2-------2-|
-----2-------2------2-------2---|-----2-------2------2-------2---|
--3------3-------3------3-------|--0------0-------0------0-------|
--------------------------------|--------------------------------|
Asus4          Am                Asus2          Asus4
--0--------------0--------------|--0--------------0--------------|
--3--------3-----1--------1-----|--0--------0-----3--------3-----|
-------2-------2------2-------2-|-------2-------2------2-------2-|
-----2-------2------2-------2---|-----2-------2------2-------2---|
--0------0-------0------0-------|--0------0-------0------0-------|
--------------------------------|--------------------------------|
Am             Asus2             Asus2
--0--------------0--------------|--0----------------||
--1--------1-----0--------0-----|--0----------------||
-------2-------2------2-------2-|-------------------||
-----2-------2------2-------2---|-------------------||
--0------0-------0------0-------|--0----------------||
--------------------------------|-------------------||
[Intro]
C     C     Am         G/B
G/B  C      G    Am
I    close  my  eye
G           Dm7            A7              G/B
only for a moment, and the moment's gone.
C    G/B Am
All  my  dreams
G              Dm7         Am
pass before my eyes, a curiosity.
D/F#    G       Am      Am/G
Dust  in the wind.
D/F#             G            Am
All they are  is dust in  the wind.
G/B   C     G/B   Am
Same  old   song.
G               Dm7        Am             G/B
Just a drop of water in an endless sea.
C     G/B   Am
All   we    do
G               Dm7                Am
crumbles to the ground though we refuse to see.
D/F#    G       Am      Am/G
Dust  in the wind.
D/F#          G           Am           G/A
All we are is dust in the wind._____
F/A
Oh_________________
Am    G/A      F/A            C           Am         G/B
C        G/B      Am
Don't    hang     on.
G                 Dm7         Am                G/B
Nothing lasts forever but the earth and sky.    It
C     G/B Am
slips a - way.
G              Dm7           Am
All your money won't another minute buy.
D/F#  G           Am       Am/G
Dust in the wind.        
D/F#          G            Am            Am/G
All we are is dust in the wind
All we are is dust in the 
D/F#        G          Am                Am/G         D/F#
Dust     in the wind.                           Ev -
wind                    Ev - 'y thing is dust in the wind 
G            Am
'ry - thing is dust  in the wind.

Leave a Reply

Ce site utilise Akismet pour réduire les indésirables. En savoir plus sur comment les données de vos commentaires sont utilisées.