Jimi Hendrix

Jimi Hendrix – All along the watchtower

Vidéo guitare et chant, tablature gratuite, accords, paroles de la chanson «All along the watchtower» de Jimi Hendrix.

Tablature, accords, paroles

Accords utilisés:
   G#  A#  Cm
e|-4---6---8--|
B|-4---6---8--|
G|-5---7---8--|
D|-6---8---10-|
A|-6---8---10-|
E|-4---6---8--|


INTRO:

Partie rythmique
e|-6-6-8--8--8-----6-6-4-4-4----|
B|-6-6-8--8--8-----6-6-4-4-4----|
G|-7-7-8--8--10----7-7-5-5-5----|
D|-8-8-10-10-10----8-8-6-6-6----|  
A|-8-8-10-10-10----8-8-6-6-6----|  X2
             *             *
puis
e|-----------------------------------------------------------------|
B|----11-13-13-13-13---13--11----------------------------------11--|
G|-12-------------------------12-10vvv-8-10-8-10-10-10---10--8-----|
D|-----------------------------------------------------------------|
A|-----------------------------------------------------------------|
E|-----------------------------------------------------------------|
            b----------rb                      b---------rb    b---  
 
*: let ring
b---: bend until end of the dotted line 
rb: release the bend
vvv: vibrato         




Cm  A#   G#    A# 

Cm           A#              G#         A#    Cm         A#           G#   A#
 "There must be some kind of way out of here,"  said the joker to the thief,
Cm        A#          G#    A# Cm        A#       G#    A#
 "There's too much confusion,    I can't get no relief.
Cm       A#        G#       A#    Cm       A#     G#     A#
 Businessmen, they drink my wine,  plowmen dig my earth,
Cm        A#    G#       A#   Cm          A#           G#      A#
  None of them along the line   know what any of it is worth."


Rejouer partie rythmique intro


"No reason to get excited," the thief, he kindly spoke,
"There are many here among us who feel that life is but a joke.
But you and I, we've been through that, and this is not our fate,
So let us not talk falsely now, the hour is getting late."


Rejouer partie rythmique intro


All along the watchtower, princes kept the view
While all the women came and went, barefoot servants, too.

Outside in the distance a wildcat did growl,
Two riders were approaching, the wind began to howl

Leave a Reply

Ce site utilise Akismet pour réduire les indésirables. En savoir plus sur comment les données de vos commentaires sont utilisées.