Jet

Jet – She’s a genius

Tablature gratuite de la chanson “She’s a genius” de Jet.

Tablature, accords, paroles:

Intro
e---------------------------|
B---------------------------|
G---------------------------|
D---------------------------|
A---7-7-----7-5-7-7---------|
E-------0-0---------0-3-0-5-|
e---------------------------|
B---------------------------|
G---------------------------|
D---------------------------|
A-----7-7-----7-5-7-7-------|
E--------0-0---------0-3-0-5|
e---------------------------|
B---------------------------|
G---------------------------|
D---------------------------|
A---7-7-----7-5-7-7---------|
E-------0-0---------0-3-0-5-|
e---------------------------|
B---------------------------|
G---------------------------|
D---------------------------|
A-----7-7-----7-5-7-7-------|
E--------0-0---------0-3-0-5|
My girl's ready to take control she just blows my mind
e---------------------------|
B---------------------------|
G---9-9-9-9-----------------|
D---9-9-9-9--5-7-7-7-7-7--5-|
A---7-7-7-7--5-7-7-7-7-7--5-|
E------------3-5-5-5-5-5--3-|
e-----------------------------|
B-----------------------------|
G----------------9-9-9-9-9----|
D--7-7-7-7-7--5--9-9-9-9-9-7--|
A--7-7-7-7-7--5--7-7-7-7-7-7--|
E--5-5-5-5-5--3------------5--|
She only listens to the radio to see who's alive
e---------------------------|
B---------------------------|
G---9-9-9-9-----------------|
D---9-9-9-9--5-7-7-7-7-7--5-|
A---7-7-7-7--5-7-7-7-7-7--5-|
E------------3-5-5-5-5-5--3-|
e------------------------------|
B------------------------------|
G----------------9-9-9-9-9-----|
D--7-7-7-7-7--5--9-9-9-9-9--7--|
A--7-7-7-7-7--5--7-7-7-7-7--7--|
E--5-5-5-5-5--3-----------0-5--|
yeah
e---------------------------|
B---------------------------|
G------------------------7--|
D---------------------5--7--|
A---7-7-----7-5-7-7---5--5--|
E-------0-0---------0-3-----|
She wakes up scared of getting of getting old...
e---------------------------|
B---------------------------|
G---9-9-9-9-----------------|
D---9-9-9-9--5-7-7-7-7-7--5-|
A---7-7-7-7--5-7-7-7-7-7--5-|
E------------3-5-5-5-5-5--3-|
e-----------------------------|
B-----------------------------|
G----------------9-9-9-9-9----|
D--7-7-7-7-7--5--9-9-9-9-9-7--|
A--7-7-7-7-7--5--7-7-7-7-7-7--|
E--5-5-5-5-5--3------------5--|
She knows so many pretty boys...
e---------------------------|
B---------------------------|
G---9-9-9-9-----------------|
D---9-9-9-9--5-7-7-7-7-7--5-|
A---7-7-7-7--5-7-7-7-7-7--5-|
E------------3-5-5-5-5-5--3-|
e-----------------------------|
B-----------------------------|
G----------------9-9-9-9-9----|
D--7-7-7-7-7--5--9-9-9-9-9-7--|
A--7-7-7-7-7--5--7-7-7-7-7-7--|
E--5-5-5-5-5--3------------5--|
That girl's a genius
e---------------------------|
B---------------------------|
G---5-5--5-5-5--7-7--4-7-9--|
D---5-5--5-5-5--7-7--4-7-9--|
A---3-3--3-3-3--5-5--2-5-7--|
E---------------------------|
e-----------------------------|
B-----------------------------|
G---9-9--9-9-9--9-9--9-9-9----|
D---9-9--9-9-9--9-9--9-9-9----|
A---7-7--7-7-7--7-7--7-7-7----|
E-----------------------------|
I think she's serious
e---------------------------|
B---------------------------|
G---5-5--5-5-5--7-7--4-7-4--|
D---5-5--5-5-5--7-7--4-7-4--|
A---3-3--3-3-3--5-5--2-5-2--|
E---------------------------|
e-----------------------------|
B-----------------------------|
G---4-4--4-4-4-4-4-4-4-4-4-4--|
D---4-4--4-4-4-4-4-4-4-4-4-4--|
A---2-2--2-2-2-2-2-2-2-2-2-2--|
E-----------------------------|
e---------------------------|
B---------------------------|
G---------------------------|
D---------------------------|
A---7-7-----7-5-7-7---------|
E-------0-0---------0-3-0-5-|
e---------------------------|
B---------------------------|
G---------------------------|
D---------------------------|
A-----7-7-----7-5-7-7-------|
E--------0-0---------0-3-0-5|
If what you know is who you are then she's everything
e---------------------------|
B---------------------------|
G---9-9-9-9-----------------|
D---9-9-9-9--5-7-7-7-7-7--5-|
A---7-7-7-7--5-7-7-7-7-7--5-|
E------------3-5-5-5-5-5--3-|
e-----------------------------|
B-----------------------------|
G----------------9-9-9-9-9----|
D--7-7-7-7-7--5--9-9-9-9-9-7--|
A--7-7-7-7-7--5--7-7-7-7-7-7--|
E--5-5-5-5-5--3------------5--|
You don't need an education to know what class that you're in
e---------------------------|
B---------------------------|
G---9-9-9-9-----------------|
D---9-9-9-9--5-7-7-7-7-7--5-|
A---7-7-7-7--5-7-7-7-7-7--5-|
E------------3-5-5-5-5-5--3-|
e-----------------------------|
B-----------------------------|
G----------------9-9-9-9-9----|
D--7-7-7-7-7--5--9-9-9-9-9-7--|
A--7-7-7-7-7--5--7-7-7-7-7-7--|
E--5-5-5-5-5--3------------5--|
They said hey there girl tell me whatta ya do...
e-----------------------------|
B-----------------------------|
G-----------------------------|
D---9-----5-5------7----------|
A---9-----5-5------7----------|
E---7-----3-3------5----------|
Et tout recommence !
My girl's ready to take control
She just blows my mind
She only listens to the radio
To see who's alive, yeah
She wakes up scared of getting old
She don't feel no shame
She knows so many pretty boys
And they are all the same
They said, 'oh hey there girl tell me what do you do'
She said, 'um nothing but I'm damn sure it's more than you'
That girl's a genius
Whoa oh oh oh oh oh
I think she's serious
Whoa oh oh oh oh oh oh
If what you know is who you are
Then she's everything
You don't need an education
To know what class that you're in
They said 'hey there girl tell me what do you do'
She said 'nothing but I'm damn sure it's more than you'
That girl's a genius
Whoa oh oh oh oh oh
I think she's serious
Whoa oh oh oh oh oh
That girl's a genius
Whoa oh oh oh oh oh
I think she's serious
Whoa oh oh oh oh oh oh
She said hey there boy
Come on over and sit
Love is when you wanna kiss
And you get bit
That girl's a genius
Whoa oh oh oh oh oh
I think she's serious
Whoa oh oh oh oh oh
That girl's a genius
Whoa oh oh oh oh oh
I think she's serious
Whoa oh oh oh oh oh
That girl's a genius
That girl's a genius
That girl's a genius
Whoa oh oh oh oh oh oh

Leave a Reply

Ce site utilise Akismet pour réduire les indésirables. En savoir plus sur comment les données de vos commentaires sont utilisées.