Jean Louis Aubert

Jean Louis Aubert – Temps à nouveau

Tablature gratuite de la chanson “Temps à nouveau” de Jean Louis Aubert.

Tablature, accords, paroles:

Accords utilisés:
D (xx0232)
A#m/D (xx0323)
Bm/D (xx0432)
G/D (xx0033)
A (x02220)
Bm (224432)
G (320033)

INTRO:

  D             A#m/D          Bm/D           G/D
|-2--------------3--------------2--------------3---2-3--
|-3--3-3-3-3-3-3-2--2-2-2-2-2-2-3--3-3-3-3-3-3-3---3-3--
|-2--2-2-2-2-2-2-3--3-3-3-3-3-3-4--4-4-4-4-4-4-0--------
|-0--------------0--------------0--------------0--------
|-0--------------0--------------0--------------0--------
|-------------------------------------------------------

  D             A#m/D          Bm/D           G/D
|-2--------------3--------------2--------------3--------------
|-3--3-3-3-3-3-3-2--2-2-2-2-2-2-3--3-3-3-3-3-3-3--3-3-3-3-3-3-
|-2--2-2-2-2-2-2-3--3-3-3-3-3-3-4--4-4-4-4-4-4-0--0-0-0-0-0-0-
|-0--------------0--------------0--------------0--------------
|-0--------------0--------------0--------------0--------------
|-------------------------------------------------------------

COUPLET 1:

D            A#m/D           Bm/D     G/D  
Puisque les dauphins sont les rois 
D            A#m/D           Bm/D     G/D  
Que seul le silence s’impose
D            A#m/D           Bm/D     G/D  
Puisqu’il revient à qui de droit                           
D          A#m/D      Bm/D     G/D  
De tenter les métamorphoses   


PRE-REFRAIN:

D - A - Bm - G/D                           
Puisque les révolutions        
Et puisque les révolutions  
Se font maintenant à la maison    
Et que lorsque le monde implose
D - A - Bm - G
Ce n’est qu’une nouvelle émission, émission

REFRAIN:
 
A - Bm - G - D (x2)
Il est temps à n’veau
Oh temps à n’veau
De prendre le souffle à n’veau
Il est temps à n’veau
Oh temps à n’veau
De nous jeter à l’eau
 
COUPLET 2:
D  - A#m/D - Bm/D - G/D
Puisque ce n’est plus qu’un système
Et sa  police amèricaine



PRE-REFRAIN:

 D        A#m/D          Bm/D        G/D'
De monde meilleur on ne parle plus                                   
D - A - Bm - G 
Tout juste sauver celui-là, Celui-là, Yeah
 
REFRAIN:
 
A - Bm - G - D (x2)
Il est temps à n’veau
Oh temps à n’veau
De prendre le souffle à n’veau
Il est temps à n’veau
Oh temps à n’veau
De nous jeter à l’eau
G - A - D
De nous jeter à l’eau

INTERLUDE

SOLO
 
PRE-REFRAIN:

D - A - Bm - riff G/D 
Puisque je suis mon aquarium
D - A - Bm - G 
Moi le poison, moi le poisson, Changé en homme

REFRAIN:
 
A - Bm - G - D (x2)
Il est temps à n’veau
Oh temps à n’veau
De prendre le souffle à n’veau
Il est temps à n’veau
Oh temps à n’veau
De me jeter à l’eau

A - Bm - G - D (x2)
Oh temps à n’veau
Oh temps à n’veau
De prendre le souffle à n’veau
Il est temps à n’veau
Oh temps à n’veau
De nous jeter à l’eau

G - D - A - D

D - A - Bm - G (x5)
Oh temps pour se jeter à l’eau
Oh temps pour se jeter à l’eau
Oh temps pour se jeter à l’eau
Oh temps pour se jeter à l’eau
Oh temps à n’veau
Oh temps pour se jeter à l’eau
Oh temps à n’veau
Oh temps pour se jeter à l’eau
Mmm temps à n’veau
Oh temps pour se jeter à l’eau
Ohhh temps à n’veau
De nous jeter à l’eau
Oh temps pour se jeter à l’eau
Oh temps à n’veau
De nous jeter à l’eau
Oh temps pour se jeter à l’eau
Oh temps à n’veau
De nous jeter à l’eau

G - D - A - D (x2)

Leave a Reply

Ce site utilise Akismet pour réduire les indésirables. En savoir plus sur comment les données de vos commentaires sont utilisées.