Jean Louis Aubert

Jean Louis Aubert – Alter ego

Vidéo guitare et chant, tablature gratuite, accords, paroles de la chanson “Alter ego” de Jean Louis Aubert.

Tablature, accords

intro et couplets
e       --3-2-3-----2-----------
B       --3-3-3-3---3-3---3-----
G       -------------- 0--0------               X2
D       -------------------------
A       -3--------2-----2--------
E       -------------------------

Riff ½
e       -----2-----3-----2-------
B       ----3-3---3-3---3-3------
G       ---2---2-2---2-2---2-----    Suivi du riff 2/2
D       --0-----0-----0-----------
A       --------------------------
E       --------------------------
Riff 2/2
e       -------------------------
B       -------------------------
G       -------0-2-4------------- à jouer entre les couplets
D       -0-2-4------------------- et les refrains
A       -------------------------
E       -------------------------



Em CM7 D6 x2
Am D Dsus4 Riffs (½ et 2/2)

Leave a Reply

Ce site utilise Akismet pour réduire les indésirables. En savoir plus sur comment les données de vos commentaires sont utilisées.