Jean Jacques Goldman

Jean Jacques Goldman – Quand tu danses

Tablature Quand tu danses de Jean Jacques Goldman. Vidéo guitare et chant, partition gratuite, accords et paroles de la chanson.

Tablature, accords, paroles

Accorder la guitare un ton plus bas 
(D - G - C - F - A - D)
INTRO
Cadd9           G               Dsus4           Em7
|--3---------3-----3---------3-----3---------2-----3---------3---
|--3-----3---------------3---------------3---------------3-------
|------0---0-----------0---0-----------2---2-----------0---0-----
|----------------------------------0-----------------------------
|--3-------------------------------------------------------------
|------------------3-------------------------------0-------------
Cadd9           G               Dsus4           G
|--3---------3-----3---------3-----3---------2-----3---------3---
|--------3---------------3---------------3---------------3-------
|------0---0-----------0---0-----------2---2-----------0---0---0-
|----------------------------------0-----------------------------
|--3-------------------------------------------------------------
|------------------3-------------------------------3-------------
G               G
|------------3---------------3---|
|3-------3-------3-------3-------|
|------0---0---0-------0---0-----|
|--------------------------------|
|--------------------------------|
|--3---------------3-------------|
COUPLET 1
Em7             Cadd9           Dsus4           G
|--3---------3-----3---------3-----3---------2-----3---------3---
|--------3---------------3---------------3---------------3-------
|------0---0-----------0---0-----------2---2-----------0---0-----
|----------------------------------0-----------------------------
|------------------3---------------------------------------------
|--0-----------------------------------------------3-------------
G               Cadd9           G               Cadd9
|--3---------2---0-0---------3-----3---------3-----0---------0---
|--------3---------------3---------------3---------------3-------
|------0---0-----------0---0-----------0---0-----------0---0-----
|----------------------------------------------------------------
|------------------3-------------------------------3-------------
|--3-------------------------------3-----------------------------
D               Em7             Cadd9           D
|--2---------3-----3---------3-----3---------3-----2---------3---
|--------3---------------3---------------3---------------3-------
|------2---2-----------0---0-----------0---0-----------2---2-----
|--0-----------------------------------------------0-------------
|----------------------------------3-----------------------------
|------------------0---------------------------------------------
Em7             Em7     G       Cadd9           G
|--3---------3-------3-------3-----3---------3-----3---------3---
|--------3-------3-------3-------3-------3---------------3-------
|------0---0---0-------0-------0-------0---0-----------0---0-----
|------------------2-------0-------------------------------------
|----------------------------------3-----------------------------
|--0-----------------------------------------------3-------------
D               Em7             Cadd9           G
|--2---------3-----3---------3-----3---------3-----3---------3---
|--------3---------------3---------------3---------------3-------
|------2---2-----------0---0-----------0---0-----------2---2-----
|--0-------------------------------------------------------------
|----------------------------------3-----------------------------
|------------------0-------------------------------3-------------
D               G               G               G
|--2---------3-----3---------3---------------3---------------3---|
|--------3---------------3-------3-------3-------3-------3-------|
|------2---2-----------0---0---0-------0---0---0-------0---0-----|
|--0-------------------------------------------------------------|
|----------------------------------------------------------------|
|------------------3---------------3---------------3-------------|
COUPLET 2
Em7             Cadd9           D               G
|--3---------3-----3---------3-----2---------3-----3---------3---
|--------3---------------3---------------3---------------3-------
|------0---0-----------0---0-----------2---2-----------0---0-----
|----------------------------------0-----------------------------
|------------------3---------------------------------------------
|--0-----------------------------------------------3-------------
G               Cadd9           G               Cadd9
|--3---------2-----0---------3-----3---------3-----0---------0---
|--------3---------------3---------------3---------------3-------
|------0---0-----------0---0-----------0---0-----------0---0-----
|----------------------------------------------------------------
|------------------3-------------------------------3-------------
|--3-------------------------------3-----------------------------
D               Em7             Cadd9           D
|--2---------3-----3---------3-----3---------3-----2---------3---
|--------3---------------3---------------3---------------3-------
|------2---2-----------0---0-----------0---0-----------2---2-----
|--0-----------------------------------------------0-------------
|----------------------------------3-----------------------------
|------------------0---------------------------------------------
Em7             Em7     G       Cadd9           G
|--3---------3-------3-------3-----3---------3-----3---------3---
|--------3-------3-------3-------3-------3---------------3-------
|------0---0---0-------0-------0-------0---0-----------0---0-----
|------------------2-------0-------------------------------------
|----------------------------------3-----------------------------
|--0-----------------------------------------------3-------------
D               Em              Cadd9           G
|--2---------3-----3---------3-----3---------3-----3---------3---
|--------3---------------3---------------3---------------3-------
|------2---2-----------0---0-----------0---0-----------2---2-----
|--0-------------------------------------------------------------
|----------------------------------3-----------------------------
|------------------0-------------------------------3-------------
D               G               G               G
|--2---------3-----3---------3---------------3---------------3---|
|--------3---------------3-------3-------3-------3-------3-------|
|------2---2-----------0---0---0-------0---0---0-------0---0-----|
|--0-------------------------------------------------------------|
|----------------------------------------------------------------|
|------------------3---------------3---------------3-------------|
COUPLET 3
Em7             Cadd9           D               G
|--3---------3-----3---------3-----2---------3-----3---------3---
|--------3---------------3---------------3---------------3-------
|------0---0-----------0---0-----------2---2-----------0---0-----
|----------------------------------0-----------------------------
|------------------3---------------------------------------------
|--0-----------------------------------------------3-------------
G               Cadd9           G               Cadd9
|--3---------2-----0---------0---------------3-----0---------0---
|--------3---------------3---------3-----3---------------3-------
|------0---0-----------0---0-----------0---0-----------0---0-----
|----------------------------------------------------------------
|------------------3-------------------------------3-------------
|--3-------------------------------3-----------------------------
D               Em7             Cadd9           Dsus4
|--2---------3-----3---------3-----3---------3-----3---------2---
|--------3---------------3---------------3---------------3-------
|------2---2-----------0---0-----------0---0-----------2---2-----
|--0-----------------------------------------------0-------------
|----------------------------------3-----------------------------
|------------------0---------------------------------------------
Em7             Em7     G       Cadd9           G
|--3---------3-------3-------3-----3---------3-----3---------3---
|--------3-------3-------3-------3-------3---------------3-------
|------0---0---0-------0-------0-------0---0-----------0---0-----
|------------------2-------0-------------------------------------
|----------------------------------3-----------------------------
|--0-----------------------------------------------3-------------
D               Em7             Cadd9           G
|--2---------3-----3---------3-----3---------3-----3---------3---
|--------3---------------3---------------3---------------3-------
|------2---2-----------0---0-----------0---0-----------2---2-----
|--0-------------------------------------------------------------
|----------------------------------3-----------------------------
|------------------0-------------------------------3-------------
Dsus4           G               G               G
|--3---------2-----3---------3---------------3---------------3---|
|--------3---------------3-------3-------3-------3-------3-------|
|------2---2-----------0---0---0-------0---0---0-------0---0-----|
|--0-------------------------------------------------------------|
|----------------------------------------------------------------|
|------------------3---------------3---------------3-------------|
COUPLET 4
Em7             Cadd9           D               G
|--3---------3-----3---------3-----2---------3-----3---------3---
|--------3---------------3---------------3---------------3-------
|------0---0-----------0---0-----------2---2-----------0---0-----
|----------------------------------0-----------------------------
|------------------3---------------------------------------------
|--0-----------------------------------------------3-------------
G               Cadd9           G               Cadd9
|--3---------2-----0---------0---------------3-----0---------0---
|--------3---------------3---------3-----3---------------3-------
|------0---0-----------0---0-----------0---0-----------0---0-----
|----------------------------------------------------------------
|------------------3-------------------------------3-------------
|--3-------------------------------3-----------------------------
D               Em7             Cadd9           Dsus4
|--2---------3-----3---------3-----3---------3-----3---------3---
|--------3---------------3---------------3---------------3-------
|------2---2-----------0---0-----------0---0-----------2---2-----
|--0-----------------------------------------------0-------------
|----------------------------------3-----------------------------
|------------------0---------------------------------------------
Em7             Em7     G       Cadd9           G
|--3---------3-------3-------3-----3---------3-----3---------3---
|--------3-------3-------3-------3-------3---------------3-------
|------0---0---0-------0-------0-------0---0-----------0---0-----
|------------------2-------0-------------------------------------
|----------------------------------3-----------------------------
|--0-----------------------------------------------3-------------
D               Em7             Cadd9           G
|--2---------3-----3---------3-----3---------3-----3---------3---
|--------3---------------3---------------3---------------3-------
|------2---2-----------0---0-----------0---0-----------2---2-----
|--0-------------------------------------------------------------
|----------------------------------3-----------------------------
|------------------0-------------------------------3-------------
Dsus4           G               G               G
|--3---------3-----3---------3---------------3---------------3---
|--------3---------------3-------3-------3-------3-------3-------
|------2---2-----------0---0---0-------0---0---0-------0---0---0-
|--0-------------------------------------------------------------
|----------------------------------------------------------------
|------------------3---------------3---------------3-------------
G
|------------3---|
|3-------3-------|
|------0---0-----|
|----------------|
|----------------|
|--3-------------|
COUPLET 5
Em7             Cadd9           D               G
|---3--------3-----3---------3-----2---------3-----3---------3---
|--3-----3---------------3---------------3---------------3-------
|------0---0-----------0---0-----------2---2-----------0---0-----
|----------------------------------0-----------------------------
|------------------3---------------------------------------------
|--0-----------------------------------------------3-------------
G               Cadd9           G               Cadd9
|--3---------2-----0---------0---------------3-----0---------0---
|--------3---------------3---------3-----3---------------3-------
|------0---0-----------0---0-----------0---0-----------0---0-----
|----------------------------------------------------------------
|------------------3-------------------------------3-------------
|--3-------------------------------3-----------------------------
D               Em7             Cadd9           D
|--2---------3-----3---------3-----3---------3-----2---------3---
|--------3---------------3---------------3---------------3-------
|------2---2-----------0---0-----------0---0-----------2---2-----
|--0-----------------------------------------------0-------------
|----------------------------------3-----------------------------
|------------------0---------------------------------------------
Em7             Em7     G       Cadd9           G
|--3---------3-------3-------3-----3---------3-----3---------3---
|--------3-------3-------3-------3-------3---------------3-------
|------0---0---0-------0-------0-------0---0-----------0---0-----
|------------------2-------0-------------------------------------
|----------------------------------3-----------------------------
|--0-----------------------------------------------3-------------
D               Em7             Cadd9           G
|--2---------3-----3---------3-----3---------3-----3---------3---
|--------3---------------3---------------3---------------3-------
|------2---2-----------0---0-----------0---0-----------2---2-----
|--0-------------------------------------------------------------
|----------------------------------3-----------------------------
|------------------0-------------------------------3-------------
D               Em7
|--2---------3-----3---------3---|
|--------3---------------3-------|
|------2---2-----------0---0-----|
|--0-----------------------------|
|--------------------------------|
|------------------0-------------|
FINAL
Cadd9           G               D               Em7
|--3---------3-----3---------3-----2---------2-----3---------3---
|--------3---------------3---------------3---------------3-------
|------0---0-----------0---0-----------2---2-----------0---0-----
|----------------------------------0-----------------------------
|--3-------------------------------------------------------------
|------------------3-------------------------------0-------------
Cadd9           G               D               Em7
|--3---------3-----3---------3-----2---------3-----3---------3---
|--------3---------------3---------------3---------------3-------
|------0---0-----------0---0-----------2---2-----------0---0-----
|----------------------------------0-----------------------------
|--3-------------------------------------------------------------
|------------------3-------------------------------0-------------
Cadd9           G               D               Em7
|--8---------8-----7---------7-----5---------------3-------------
|--------8---------------8---------------7---8-----------3---5---
|------0---0-----------7---7-----------7---7-----------0---0-----
|------------------0---------------0-----------------------------
|----------------------------------------------------------------
|--8-----------------------------------------------0-------------
Cadd9           G               D               G
|--8---------8-----7---------7-----5---------------------------3-|
|--------8---------------8---------------7---8-------------3-----|
|------0---0-----------7---7-----------7---7-----------0---------|
|------------------0---------------0-----------------------------|
|----------------------------------------------------------------|
|--8-----------------------------------------------3-------------|
Cadd9   G   Dsus4   Em7   Cadd9   G   Dsus4   G
(intro)
Em7            Cadd9        Dsus4         G
J'ai fait la liste de ce qu'on ne sera plus
Cadd9      G     Cadd9      G
Quand tu danses
quand tu danses
Em7         Cadd9        D            Em7  G
Mais que deviennent les amoureux perdus ?
Cadd9      G     D         Em7
Quand tu danses
y songes-tu ?
Cadd9      G     D         Em7
Quand tu danses
y songes-tu ?
Amis non
ni amants
étrangers non plus
Quand tu danses
quand tu danses
Mais quel après
après s'être appartenus ?
Quand tu danses
y songes-tu ?
Quand tu danses
y songes-tu ?
Je crois bien que j'aurai besoin de te voir
Quand tu danses
quand tu danses
Sans te parler
ni déranger
mais te voir
Quand tu danses
y songes-tu ?
Quand tu danses
y songes-tu ?
Et toutes les peines
toutes
contre une seule de nos minutes
Mais n'être plus rien
après tant c'est pas juste
Quand tu danses
y songes-tu ?
Quand tu danses
y songes-tu ?
Et j'ai fait la liste de ce qu'on ne sera plus
Mais que deviennent les amours éperdues ?
Quand tu danses
y songes-tu ?
Cadd9      G     D         Em7
Quand tu danses
y songes-tu ?
Cadd9   G   D   Em7
Cadd9   G   D   Em7
Cadd9   G   D   Em7
Cadd9   G   D   Em7
(final)

Leave a Reply

Ce site utilise Akismet pour réduire les indésirables. En savoir plus sur comment les données de vos commentaires sont utilisées.