Ghinzu

Ghinzu – Do you read me

Tablature gratuite de la chanson “Do you read me” de Ghinzu.

Clip vidéo

Tablature, accords:

Intro:

E----------------------------------        
B----------------------------------
G-----2---1--------2---1---1-2-----
D---4--------4---4-----------------
A----------------------------------
E-2-----2-----2------2---2--------- 


Couplet 1

Do you read me? 
E----------------------------------        
B----------------------------------
G-----2---1--------2---1---1-2-----
D---4--------4---4-----------------
A----------------------------------
E-2-----2-----2------2---2---------    

Do you read me loud?
E----------------------------------        
B----------------------------------
G-----2---1--------2---1---1-2-----
D---4--------4---4-----------------
A----------------------------------
E-2-----2-----2------2---2---------  

Do you  hear  me    coming 
E----------------------------------
B---------------------------------- 
G-----6---4-------6---4---6-4------
D---7--------7--7------------------ 
A---------------------------------- 
E-5-----5-----5-----5---5---------- 

to             you          baby?
E---------------------------------- 
B----------------------------------  
G-----9---8---------9---8---9-8----  
D---11-------11--11----------------  
A---------------------------------- 
E-9-----9------9------9---9--------


Accords:

F#m 
Do you read me?
F#m 
Do you read me loud?
A 
Do you hear me coming
C#m 
To you baby?

F#m 
I'm a chopped off head
F#m 
Cruising at the speed of sound
A 
Spitfiring in the air
C#m 
Transmitting to the ground

F#m 
See I'm a projectile baby
F#m 
A radio controlled
A 
And when I call out your name
C#m 
It releases me from pain

F#m 
She's a blood-hot comet
F#m 
Going to see my rendez-vous
A 
Do you hear me coming
C#m 
To you baby?

(Refrain / Chorus)
F#m                 D 
I was waiting for you for so many nights
F#m                 D 
I was waiting for you from time to time
        A 
Do you read me?
         C# 
Do you hear me?

F#m 
She's headless body
F#m 
Starving for your electro shocks
A 
I want to shake and ride
C#m 
And twist all night long

F#m 
So I'm just lying on the floor
F#m 
Eating some coke and silicon
A 
And hope only for the day
C#m 
We'll be back at one

F#m 
She's a headless fury
F#m 
Going to meet my rendez-vous
A 
Do you hear me coming
C#m 
To you now baby

F#m                 D 
I was waiting for you for so many nights
F#m                 D 
I was waiting for you from time to time
        A 
Do you read me?
         C# 
Do you hear me?

Leave a Reply

Ce site utilise Akismet pour réduire les indésirables. En savoir plus sur comment les données de vos commentaires sont utilisées.