Gerald De Palmas

Gerald De Palmas – Au paradis

Tablature gratuite de la chanson “Au paradis” de Gerald De Palmas.

Tablature, accords, paroles:

Accorder la guitare 1/2 ton plus bas

Intro et couplets:

  Am           G      F         Am           G      F 
-------------------------------------------------------------
---1-------------3------1--------1-------------3-------------
---2------------------0-----0----2---------------------2---0-
-----------0^2------3-----3--------------0^2-----------------
-0---0^2^3---------------------0---0^2^3---------0^2^3---3---
---------------3-----------------------------3---------------


Am              G       F    Am              G  F     
  Comment peux tu vivre avec ce type
Am              G      F    Am               G  F     
  Comment fais tu pour écouter
Am               G         F  Am             G  F       
  Le monceau de bêtises qu'il débite
Am           G           F     Dm
  Sans arrêt à longueur de journée


Refrain :
      Am     F        C      G
Tu as gagné ta place au paradis
      Am F            C         G
Et si un ange passe, pars avec lui
      Am     F        C      G
Tu as gagné ta place au paradis
       Dm
Au paradis


Am                 G       F         Am       G  F
  Te fait il des choses venues de l 'espace
Am                 G         F     Am         G  F
  Ou peut être est il juste le premier
Am             G         F       Am           G  F
  Mais honnêtement rien ne justifie
Am                 G      F   Dm
  Le calvaire que tu dois endurer


Refrain :
      Am     F        C      G
Tu as gagné ta place au paradis
      Am F            C         G
Et si un ange passe, pars avec lui
      Am     F        C      G
Tu as gagné ta place au paradis
       Dm
Au paradis


Pont :

---0--------0--------0--------0-----
-----5--------5--------5--------5---
------------------------------------
-------------------5-----5--3-----3-
-0-----0--3-----3-------------------
------------------------------------


Am              G          F            Am     G  F
  Un jour ou l'autre, il faudra que tu partes
Am             G       F       Am              G  F
  Quand les enfants auront grandi
Am        G    F      Am                       G  F
  Vivre seule sans le bellâtre
Am            G       F    Dm
  C'est une question de survie 


Refrain :
      Am     F        C      G
Tu as gagné ta place au paradis
      Am F            C         G
Et si un ange passe, pars avec lui
      Am     F        C      G
Tu as gagné ta place au paradis
       Dm
Au paradis

Leave a Reply

Ce site utilise Akismet pour réduire les indésirables. En savoir plus sur comment les données de vos commentaires sont utilisées.