Elodie Frégé

Elodie Frégé – la fille de l’après-midi

Tablature gratuite de la chanson “La fille de l’après-midi” de Elodie Frégé.

Tablature, accords, paroles:

1) Intro + 1er et 2 ème couplet

joué 3 fois:

5-5-50-4-4-40-3-3-30-2-2-20-----
--------------------------------
--------------------------------  3X
-5-5--5-5-5--5-5-5--5-5-5--5----
-0-0--0-0-0--0-0-0--0-0-0--0----
--------------------------------



2) 3ème couplet : vous m'avez
laissé là vivoter ...

--------------7-7-77-6-6-60-----
5-5-50-3-3-30-------------------
--------------------------------
--------------------------------
-6-6----6-6----6-6----6-6-------
-0-0----0-0----0-0----0-0-------



3)Vous vouliez m’éviter
l’échafaud ...

5-5-50-4-4-40-3-3-30-2-2-20-----
--------------------------------
--------------------------------
-5-5--5-5-5--5-5-5--5-5-5--5----
-0-0--0-0-0--0-0-0--0-0-0--0----
--------------------------------



4) Refrain :
Tout ce que je suis là lalala ...

---------------------------------
0---8---9---8---5---4---2----7---
-7-7-7-7-7-7-7---4-4-4-4-4-4--6-6
--6---6---6---6---2---2--------7-
--------------------------4------
---------------------------------



-------------------------------
0---8---9---8---5---4---2----7-
-7-7-7-7-7-7-7---4-4-4-4-4-4-6-
--6---6---6---6---2---2------7-
--------------------------4----
-------------------------------


etc ...

Leave a Reply

Ce site utilise Akismet pour réduire les indésirables. En savoir plus sur comment les données de vos commentaires sont utilisées.