Cocoon

Cocoon – Tell me

Tablature gratuite de la chanson “Tell me” de Cocoon.

Tablature, accords, paroles:

Tablature:


Intro

|  |       |       |       |        |       |       |       |        
||-------------0-------------------|------------0---------------0---|
||---------------------------------|--------------------------------|
||*--------------------2-----------|--------------------------------|
||*------------------------2-------|--------2---------------2-------|
||-0-------------------------------|2h--3-----------3h--5-----------|
||---------------------------------|--------------------------------|

 
 |       |       |       |        |       |       |       |        
|------------0-------------------|---------------------------------||
|--------------------------------|---------------------------------||
|--------2-----------2-----------|--------------------------------*||
|2h--3-------------------3-------|3---------------3-------2-------*||
|--------------------------------|---------------------------------||
|--------------------------------|---------------------------------||
 


|  |       |       |       |        |       |       |       |        
||-------------0-------------------|------------0-------------------|
||-1-------------------1-----------|1-------------------1-----------|
||*--------------------------------|--------------------------------|
||*--------2---------------2-------|--------2---------------2-------|
||-0---------------0---------------|0---------------0---------------|
||---------------------------------|--------------------------------|

 
 |       |       |       |        |       |       |       |        
|------------0-------------------|------------0-------------------|
|0-------------------0-----------|0-------------------0-----------|
|--------------------------------|--------------------------------|
|--------2---------------2-------|--------2---------------2-------|
|3---------------3---------------|3---------------3---------------|
|--------------------------------|--------------------------------|

 
 |       |       |       |        |       |       |       |        
|------------0-------------------|------------0-------------------|
|--------------------0-----------|--------------------0-----------|
|2-------2-----------------------|--------2-----------------------|
|0-----------------------3-------|0-----------------------3-------|
|--------------------------------|--------------------------------|
|--------------------------------|--------------------------------|

 
 |       |       |       |        |       |       |       |        
|------------0-------------------|------------0-------------------|
|--------------------------------|--------------------------------|
|--------------------2-----------|--------2-----------2-----------|
|--------2---------------2-------|2h--3-------------------3-------|
|0-------------------------------|--------------------------------|
|--------------------------------|--------------------------------|


 |       |       |       |        |       |       |       |        
|------------0-------------------|------------0-------------------|
|1-------------------1-----------|1-------------------1-----------|
|--------------------------------|--------------------------------|
|--------2---------------2-------|--------2---------------2-------|
|0---------------0---------------|0---------------0---------------|
|--------------------------------|--------------------------------|

 
 |       |       |       |        |       |       |       |        
|------------0-------------------|------------0-------------------|
|0-------------------0-----------|0-------------------0-----------|
|--------------------------------|--------------------------------|
|--------2---------------2-------|--------2---------------2-------|
|3---------------3---------------|3---------------3---------------|
|--------------------------------|--------------------------------|

 
 |       |       |       |        |       |       |       |        
|------------0-------------------|------------0-------------------|
|--------------------0-----------|--------------------0-----------|
|2-------2-----------------------|--------2-----------------------|
|0-----------------------3-------|0-----------------------3-------|
|--------------------------------|--------------------------------|
|--------------------------------|--------------------------------|

 
 |       |       |       |        |       |       |       |        
|------------0-------------------|------------0--------------------||
|--------------------------------|---------------------------------||
|--------------------2-----------|--------------------2-----------*||
|--------2---------------2-------|--------2---------------2-------*||
|0-------------------------------|0--------------------------------||
|--------------------------------|---------------------------------||


| |       |       |       |        |       |       |       |        
||3-----------5-------3-----------|3-----------5-------3-----------||
||--------------------------------|--------------------------------||
||--------2---------------2-------|--------2---------------2-------||
||3---------------3---------------|3---------------3---------------||
||--------------------------------|--------------------------------||
||--------------------------------|--------------------------------||
 


Paroles:

Tell me what they said when they found out
That l've lost you

Tell me that you feel better when I say
It scares me too

I'm not a friend of yours anymore
I'm not a friend of yours anymore

Tell me every bend tell me all the dens
I never know

Tell me every fence tell me all the caves
You' never show

I'm not a friend of yours anymore
I'm not a friend of yours

And tonight I hate birds
I hate birds I hate birds

And tonight I hate birds
I hate birds I hate birds
I hate birds
I hate birds
I hate birds

Leave a Reply

Ce site utilise Akismet pour réduire les indésirables. En savoir plus sur comment les données de vos commentaires sont utilisées.