Cocoon

Cocoon – Hummingbird

Tablature gratuite de la chanson “Hummingbird” de Cocoon.

Capo 5


[Intro]:
e|------5-------3-------3-------------0----------|
B|----6-----5-------3---------3h5-1-------1------| x1
G|--5---------5-------4-----4-------2-------2-4--|
D|-----------------------------------------------|
A|-----------------------------------------------|
E|-----------------------------------------------|
(Riff)
   Bb                      F               C                 Dm
e|--------5-----------------3-------3-------3------------------0----------|
B|----6-------6-----3h5-1-------1-----3-0-------0----5-3h5-1-------1------| x1
G|--5---5-------5-4-------0-------0-------0-------0----------2-------2-4--|
D|------------------------------------------------------------------------|
A|------------------------------------------------------------------------|
E|------------------------------------------------------------------------|

[Couplet]:
e|--------5-----------------3-------3-------3------------------0----------|
B|----6-------6-----3h5-1-------1-----3-0-------0----5-3h5-1-------1------| x3
G|--5---5-------5-4-------0-------0-------0-------0----------2-------2-4--|
D|------------------------------------------------------------------------|
A|------------------------------------------------------------------------|
E|------------------------------------------------------------------------|
There's a long, long road, to reach your house.
And I arrived just before, just before the sunset.
And you said, and you said welcome with your eyes.
e|--------5-----------------3-------3-------3-------3-------3-----3--|
B|----6-------6-----3h5-1-------1-----3-0-------0-----6-0-----6-0----| x1
G|--5---5-------5-4-------0-------0-------0-------0-------0------0---|
D|-------------------------------------------------------------------|
A|-------------------------------------------------------------------|
E|-------------------------------------------------------------------|
And we said, and we said nothing and all.

[Refrain]:
e|--------5-----------------3-------3-------3------------------0----------|
B|----6-------6-----3h5-1-------1-----3-0-------0----5-3h5-1-------1------| x2
G|--5---5-------5-4-------0-------0-------0-------0----------2-------2-4--|
D|------------------------------------------------------------------------|
A|------------------------------------------------------------------------|
E|------------------------------------------------------------------------|
Oh we have been to many churches but we never believed.
We have been to many churches but we never believed.

[Interlude]: Riff x2

[Couplet 2]:
e|--------5-----------------3-------3-------3----------------x------------|
B|----6---6---6-----3h5-1---1---1-----3-0---0---0----5-3h5-1-0----1-------| x3
G|--5---5-5-----5-4-------0-0-----0-------0-0-----0----------2-------2-4--|
D|------------------------------------------------------------------------|
A|------------------------------------------------------------------------|
E|------------------------------------------------------------------------|
If you go too far, there is a song you'll hear.
If we get too close, whisper in my ears.
speak the word, say it. Bewilder, say it.
e|--------5-----------------3-------3-------3-------3-------3-----3--|
B|----6-------6-----3h5-1-------1-----3-0-------0-----6-0-----6-0----| x1
G|--5---5-------5-4-------0-------0-------0-------0-------0------0---|
D|-------------------------------------------------------------------|
A|-------------------------------------------------------------------|
E|-------------------------------------------------------------------|
Humming bird, say it. Be my dad...

[Chorus]:
e|--------5-----------------3-------3-------3----------------x------------|
B|----6---6---6-----3h5-1---1---1-----3-0---0---0----5-3h5-1-0----1-------| x4
G|--5---5-5-----5-4-------0-0-----0-------0-0-----0----------2-------2-4--|
D|------------------------------------------------------------------------|
A|------------------------------------------------------------------------|
E|------------------------------------------------------------------------|
Oh we have been to many churches but we never believed.
We have been to many churches but we never believed.
We have been to many churches but we never believed.
We have been to many churches but we never believed.

[Outro]: riff x4

Leave a Reply

Ce site utilise Akismet pour réduire les indésirables. En savoir plus sur comment les données de vos commentaires sont utilisées.