Chuck Berry

Chuck Berry – Johnny be good

Tablature de la chanson « Johnny be good » de Chuck Berry.

E|-------------|--6/7--7--7--6/7--7--7--6/7--7--|--7------------------
B|-------7--9--|--6/7--7--7--6/7--7--7--6/7--7--|-----10--9--7--------
G|--7/8--------|--------------------------------|---------------7--8--
D|-------------|--------------------------------|---------------------
A|-------------|--------------------------------|---------------------
E|-------------|--------------------------------|---------------------
E|--------|-----------------------------|---------------------------|
B|--------|-----------------------------|-------7--9--7-------------|
G|--------|-----------------------------|--7/8--8--8--8--7\6--4-----|
D|--9--9--|--9--9--9--9--9--9--9--9--9--|------------------------6--|
A|--------|--9--9--9--9--9--9--9--9--9--|---------------------------|
E|--------|-----------------------------|---------------------------|
E|-----------------------------|--7-------------------7--|
B|---------7---------7---------|--7---------7---------7--|
G|--10b11-----10b11-----10b11--|-----10b11-----10b11-----|
D|-----------------------------|-------------------------|
A|-----------------------------|-------------------------|
E|-----------------------------|-------------------------|
E|-------------------------------|----------------------7--|
B|---------7-----------7---------|--7---------7---------7--|
G|--10b11-------10b11-----10b11--|-----10b11-----10b11-----|
D|-------------------------------|-------------------------|
A|-------------------------------|-------------------------|
E|-------------------------------|-------------------------|
F#                            E                                
E|---------7--------------9--7--|--------------------------7-----|
B|------------10--9--7----------|--10--9--7-------------7-----10/|
G|--10b11-----------------------|------------9--7/8--8-----------|
D|------------------------------|--------------------------------|
A|------------------------------|--------------------------------|
E|------------------------------|--------------------------------|
B                      
E|--------------------------------------|-----------||
B|--9--7---------7---------7----9----7--|-----------||
G|--------10b11-----10b11-------9--6h8--|-----------||
D|--------------------------------------|--9--------||
A|--------------------------------------|-----------||
E|--------------------------------------|-----------||
COUPLET 
B x4 - E x2 - B x2 - F# x2 - B x2
B                            E
E||----------------------------|----------------------------|
B||----------------------------|----------------------------|
G||----------------------------|----------------------------|
D||----------------------------|--9--9--11--9--9--9--11--9--|
A||--9--9--11--9--9--9--11--9--|--7--7---7--7--7--7---7--7--|
E||--7--7---7--7--7--7---7--7--|----------------------------|
F#                                 
E|----------------------------------||
B|----------------------------------||
G|----------------------------------||
D|--11--11--13--11--11--11--13--11--||
A|---9---9---9---9---9---9---9---9--||
E|----------------------------------||
REFRAIN
B                                                    
E||------------------------------|---------------------------|
B||---9/10--10--10----10--12----\|---------------------------|
G||--10/11--11--11----11--11----\|---------------------------|
D||------------------------------|---------------------------|
A||------------------------------|---------------------------|
E||------------------------------|---------------------------|
E||------------------------------|---------------------------|
B||---9/10--10--10----10--12----\|---------------------------|
G||--10/11--11--11----11--11----\|---------------------------|
D||------------------------------|---------------------------|
A||------------------------------|---------------------------|
E||------------------------------|---------------------------|
E                                                   
E||------------------------------|---------------------------|
B||---9/10--10--10----10--12----\|---------------------------|
G||--10/11--11--11----11--11----\|---------------------------|
D||------------------------------|---------------------------|
A||------------------------------|---------------------------|
E||------------------------------|---------------------------|
B                                                    
E||------------------------------|---------------------------|
B||---9/10--10--10----10--12----\|---------------------------|
G||--10/11--11--11----11--11----\|---------------------------|
D||------------------------------|---------------------------|
A||------------------------------|---------------------------|
E||------------------------------|---------------------------|
F#                                                          B
E|---------------------------|---------------------------||
B|---9/10--10--10--10--12--9\|---------------------------||
G|--10/11--11--11--11--11--9\|---------------------------||
D|---------------------------|---------------------------||
A|---------------------------|---------------------------||
E|---------------------------|---------------------------||
COUPLET 2
REFRAIN 2
B                                                                          
E||----------------------------------|----------------|
B||---------7--7---------7-----------|----------------|
G||--10b11--------10b11-------10b11--|----------------|
D||----------------------------------|----------------|
A||----------------------------------|----------------|
E||----------------------------------|----------------|
B                                                                          
E||----------------------------------|---------------|
B||---------7--7---------7-----------|---------------|
G||--10b11--------10b11-------10b11--|---------------|
D||----------------------------------|---------------|
A||----------------------------------|---------------|
E||----------------------------------|---------------|
E                                                                         
E||----------------------------------|---------------|
B||---------7--7---------7-----------|---------------|
G||--10b11--------10b11-------10b11--|---------------|
D||----------------------------------|---------------|
A||----------------------------------|---------------|
E||----------------------------------|---------------|
B                                   
E|-------------------------|---------------------|
B|---------7--7---------7--|---------------------|
G|--10b11--------10b11-----|---------------------|
D|-------------------------|---------------------|
A|-------------------------|---------------------|
E|-------------------------|---------------------|
F#                                                        B
E|-------------------------------------|---------------------|--------|
B|---------7----7---------7---------7--|---------7-----------|--------|
G|--10b11----------10b11-----10b11-----|--10b11-----10b11----|--------|
D|-------------------------------------|---------------------|--------|
A|-------------------------------------|---------------------|--------|
E|-------------------------------------|---------------------|--------|
SOLO
B                            E
E|---------------|-7--7--7--7--7-------------|-7--7--7--7--7------------|
B|----------7----|-7--7--7--7--7--9----------|-7--7--7--7--7--9---------|
G|---7/8-------9-|-----------------9--7h8----|----------------9--6h8--8-|
D|---------------|------------------------9--|------------------------9-|
A|---------------|---------------------------|------------------------9-|
E|---------------|---------------------------|--------------------------|
B7                                                      
E|--7-------------7-------------|--7--7-----7-------------|
B|--7--9----7-----7--9----7-----|--7--7-----7-------7-----|
G|-----9--7h8--------9--7h8-----|--------9-----9--6h8-----|
D|-------------9-------------9--|----------------------9--|
A|-------------9-------------9--|-------------------------|
E|------------------------------|-------------------------|
E                                             
E|---------7--------9--7--|---------7----------------7--7--|
B|--------------10--------|--10--9--7-------------7--7-----|
G|--10/11-----------------|------------9--7h8--8-----------|
D|------------------------|--------------------------------|
A|------------------------|--------------------------------|
E|------------------------|--------------------------------|
B                                 
E|--7-----------7--7--7----7--|--7-----------7-----------|
B|-----9--7-----7-------------|-----9--7-----7--9--7-----|
G|-----------8----------------|-----------8-----------8--|
D|----------------------------|--------------------------|
A|----------------------------|--------------------------|
E|----------------------------|--------------------------|
F#                         B                            
E|-7--7--7--7--7------------|------------------------|-----------------|
B|-7--7--7--7--7------------|-9b10--9b10--9b10--9b10r|-9--7--9----7----|
G|----------------9--7h8----|-9b11--9b11--9b11--9b11r|-9--8--9--7h8----|
D|------------------------9-|------------------------|---------------9-|
A|--------------------------|------------------------|-----------------|
E|--------------------------|------------------------|-----------------|
B                               E                            
E|---------|--7--7--7--7--7-------------|--7--7--7--7--7-------------|
B|---------|--7--7--7--7--7--9----------|--7--7--7--7--7--9----------|
G|--8------|-----------------9--7h8-----|-----------------9--7h8-----|
D|--9------|-------------------------9--|-------------------------9--|
A|--9------|----------------------------|----------------------------|
E|---------|----------------------------|----------------------------|
B7                               B                             
E|--7-------------7---------------|--7-------------7-------------|
B|--7--9----7-----7--9------7-----|--7--9----7-----7--9----7-----|
G|-----9--7h8--------9----7h8--8--|-----9--7h8--------9--7h8--8--|
D|-------------9---------------9--|-------------9-------------9--|
A|--------------------------------|------------------------------|
E|--------------------------------|------------------------------|
E                                                 B
E|--------7--------7--|----------7--------7--------|--7--------7--------7--|
B|--9b10--7--9b10--7--|--9b10----7--9b10--7--9b10--|--7--9b10--7--9b10--7--|
G|--9b11-----9b11-----|--9b11-------9b11-----9b11--|-----9b11-----9b11-----|
D|--------------------|----------------------------|-----------------------|
A|--------------------|----------------------------|-----------------------|
E|--------------------|----------------------------|-----------------------|
F#
E|--------7--------7--7----7--|--10b11--7--9--7--------------|
B|--9b10--7--9b10--7--7----7--|---------7--7--7--10--9----7--|
G|--9b11-----9b11-------------|------------------10--9--7h8--|
D|----------------------------|------------------------------|
A|----------------------------|------------------------------|
E|----------------------------|------------------------------|
B                                         
E|---------------------------------------|---7--7--7----------|--------||
B|--------7---------7---------7----------|---7--7--7--9----7--|--------||
G|-10b11-----10b11-----10b11-----9--7h8--|------------9--7h8--|--------||
D|---------------------------------------|--------------------|--9-----||
A|---------------------------------------|--------------------|--------||
E|---------------------------------------|--------------------|--------||
COUPLET 3
REFRAIN 3 - OUTRO
E                
E||---------------------|----------------|--------|
B||-------9/10--10--10--|--10--12--10----|--------|
G||------10/11--11--11--|--11--11--11----|--------|
D||---------------------|----------------|--------|
A||---------------------|----------------|--------|
E||---------------------|----------------|--------|
B
E|--------|-------------------|-------------------|-----------------|
B|--------|-----9/10--10--10--|--10----12--10\----|---9/10--10--10--|
G|--------|----10/11--11--11--|--11----11--11\----|--10/11--11--11--|
D|--------|-------------------|-------------------|-----------------|
A|--------|-------------------|-------------------|-----------------|
E|--------|-------------------|-------------------|-----------------|
E|-----------------|-----------------|----------------------------|
B|--10--12--10\----|---9/10--10--10--|----10--12--10----9/10--10--|
G|--11--11--11\----|--10/11--11--11--|----11--11--11----9/11--11--|
D|-----------------|-----------------|----------------------------|
A|-----------------|-----------------|----------------------------|
E|-----------------|-----------------|----------------------------|
F#                               B
E|--------------------|------------|------------------|-------------||
B|--12----12--10--12--|------------|------------------|-------------||
G|--11----11--11--11--|------------|--4--4----4--4----|--4--4----4--||
D|--------------------|------------|--4--4----4--4----|--4--4----4--||
A|--------------------|------------|------------------|-------------||
E|--------------------|------------|------------------|-------------||
COUPLET 1:
Deep down in Louisiana, close to New Orleans
Way back up in the woods among the evergreens
There stood a log cabin made of earth and wood
Where lived a country boy named Johnny B. Goode
Who never ever learned to read or write so well
But he could play the guitar just like a ringin' a bell
REFRAIN:
Go! Go! Go, Johnny, go! Go!
Go, Johnny, go! Go!
Go, Johnny, go! Go!
Go, Johnny, go! Go! Johnny B. Goode 
COUPLET2:
He used to carry his guitar in a gunny sack
Go sit beneath the tree by the railroad track
Old engineers would see him sittin' in the shade
Strummin' with the rhythm that the drivers made
The people passin' by they would stop and say
Oh, my but that little country boy can play
REFRAIN 2:
COUPLET 3:
His mother told him someday you will be a man
And you will be the leader of a big ol' band
Many people comin' from miles around
They'll hear you play your music when the sun go down
Maybe someday your name'll be in lights
Sayin' 'Johnny B. Goode tonight'
REFRAIN 3:
OUTRO

Leave a Reply

Ce site utilise Akismet pour réduire les indésirables. En savoir plus sur comment les données de vos commentaires sont utilisées.