Brice

Brice – La réunion

Tablature gratuite de la chanson “La reunion” de Brice.

Clip vidéo

Tablature, accords, paroles:

Accords utilisés

Couplet:
       Em(#5)    D#m(#5)    D6     C#m(#5)   C6
   e|----x-----|---x----|---x----|---x---|---x---|
   B|----x-----|---x----|---x----|---x---|---x---|
   G|----12----|---11---|---11---|---9---|---9---|
   D|----10----|---9----|---9----|---7---|---7---|
   A|----x-----|---x----|---x----|---x---|---x---|
   E|----12----|---11---|---10---|---9---|---8---|

       Bm(#5)    Am6      G6     F#m6
   e|----x----|---x---|---x---|---x---|
   B|----x----|---x---|---x---|---0---|
   G|----7----|---5---|---4---|---2---|
   D|----5----|---4---|---2---|---1---|
   A|----x----|---x---|---x---|---x---|
   E|----7----|---5---|---3---|---2---|

Refrain:
        Em     C(add9)    G
   e|----0----|---3---|---3---|
   B|----0----|---3---|---3---|
   G|----0----|---0---|---0---|
   D|----2----|---2---|---0---|
   A|----2----|---3---|---2---|
   E|----0----|---x---|---3---|

Pont:
        Em   F#m(#5/b13) G    Bm(b13)    C     Dadd4    B7(#5)
   e|----x---|---x---|---x---|---x---|---x---|---x----|---x---|
   B|----0---|---3---|---3---|---8---|---8---|---10---|---7---|
   G|----0---|---2---|---0---|---7---|---0---|---0----|---0---|
   D|----2---|---0---|---0---|---0---|---x---|---x----|---7---|
   A|----2---|---x---|---2---|---x---|---7---|---9----|---x---|
   E|----0---|---2---|---3---|---7---|---8---|---10---|---7---|

Em(#5)
Kan mi wa dan ton rivièr
     D#m(#5)
Ton rivièr mon liberté
      D6
Ton soufrans mon doulèr
           C#m(#5)
Ton soufrans ti fleur fané
    C6
O mi wa na lontan
Bm(#5)
Mwin lavé pa pléré
         Am6                            G6
Dan ton péi, la mèr, lo syèl, la pli, lo van, lo kèr, soley
       F#m6
Kom avan, tout kom avan


Em  C(add9)          G
Eyo o mon papa mon momon mwin mi fé
Em   C(add9)        G
Iéyo Donn a mwin la min
Em  C(add9)         G
Eyo o mon péi mon lémé mwi mi fé
Em   C(add9)
Iéyo Donn a mwin la min

Vi souvyin bordmer
Ziska Piton Maïdo
É la Frans ton malèr
Kan la Frans mont ver léo
O mi larg mon lespri
Les ali bat karé
Dan ton péi, la mèr, lo syèl, la pli, lo van, lo kèr, soley
Kom avan, na na lontan

Eyo o mon papa mon momon mwin mi fé
Iéyo Donn a mwin la min
Eyo o mon péi mon lémé mwi mi fé
Iéyo Donn a mwin la min

Mi romont la rivièr
O lwin mi gèt Bras-Panon
Tout i gout lo bonèr
Lé koulèr do la Rénion
O mi kraz in maloya
Dan tou ton banm fané
Dan ton kabar, la mèr, lo syèl, la pli, lo van, lo kèr, soley
Kom avan, tout kom avan

Eyo o mon papa mon momon mwin mi fé
Iéyo Donn a mwin la min
Eyo o mon péi mon lémé mwi mi fé
Iéyo Donn a mwin la min

O mon papa mon momon
O mon papa mon momon

Leave a Reply

Ce site utilise Akismet pour réduire les indésirables. En savoir plus sur comment les données de vos commentaires sont utilisées.