Blur

Blur – Song 2

Tablature gratuite de la chanson “Song 2” de Blur.

Clip vidéo

Tablature, accords:

Intro

    F    F          D#  D#  D#        G#  G#  A#  C    C  C
e:--------------------------------------------------------------------|
B:--10---10---X-X---8---8---8---X-X---4---4--- 4--8----8---8----------|
G:--10---10---X-X---8---8---8---X-X---5---5----7--9----9---9----------|
D:--10---10---X-X---8---8---8---X-X---6---6----8--10---10--10---------|2x
A:--8----8----X-X---6---6---6---X-X---6---6----8--10---10--10---------|
E:-----------------------------------(4)-(4)--(6)-(8)--(8)-(8)--------|



    F      D#        G#  A#  C 4x
   Whooo Hooo!!!


(Retour son clair)
    F    	    D# 	      G#  A#  C
    I got my head checked

    F           D# 	      G#  A#  C
    By a Jumbo Jet

    F    	D# 	      G#  A#  C
    It wasn't easy


    F    	  D# 	    G#  A#  C
    But nothing  is ,  		no


(Electrique)


    F          D#	      G# A#    C  
 Whoo Hooo!! 	 WELL I FEEL HEAVY METAL!!


    F          D#         G#      A#  C    
 Whoo Hooo!!       AND I'M PINS AND I'M NEEDLES!!



    F          D#             G#  A#  C    
 Whoo Hooo!!        Well I LIE and I'm EASY


    F                           G#             C#
e:------------------------------------------------------------|
B:--10--10--10--10--10--10--10--4--4--4--4--4--6--6--6--6--6--|
G:--10--10--10--10--10--10--10--5--5--5--5--5--6--6--6--6--6--|
D:--10--10--10--10--10--10--10--6--6--6--6--6--6--6--6--4--4--|
A:--8---8---8---8---8---8---8---6--6--6--6--6--4--4--4--4--4--|
E:-----------------------------(4)(4)(4)(4)(4)(4)(4)(4)(4)(4)-|
   All   of   the   time  and  I'm  never sure why I need you


  C#
e:-----------------------|
B:--6--6--6--6--6--6--6--|
G:--6--6--6--6--6--6--6--|
D:--4--6--6--6--4--4--4--|
A:--4--4--4--4--4--4--4--|
E:-(4)(4)(4)(4)(4)(4)(4)-|
   Pleased to meet Ya!


    F          D#      G#  A#  C 2X


(Clair)


    F          D#          G#  A#  C
    I got my head  done

    F        D#            G#  A#  C 
   When I was Young

    F         D#           G#  A#  C    
   It's not my problem

    F         D#           G#  A#  C
   It's not my  problem


(Electrique)



    F          D#	      G# A#    C  
 Whoo Hooo!! 	 WELL I FEEL HEAVY METAL!!


    F          D#         G#      A#  C    
 Whoo Hooo!!       AND I'M PINS AND I'M NEEDLES!!



    F          D#             G#  A#  C    
 Whoo Hooo!!        Well I LIE and I'm EASY

    F                           G#                  C#
   All   of   the   time  and  I'm  never sure why I need you

  C#
   Pleased to meet Ya!


    F          D#              G#  A#  C    		3x
               			       Yeah Yeah!

    F          D#              G#  A#  C    	
               			       Ohhhhh   Yeah

Leave a Reply

Ce site utilise Akismet pour réduire les indésirables. En savoir plus sur comment les données de vos commentaires sont utilisées.