Beth Gibbons

Beth Gibbons – Mysteries

Tablature gratuite de la chanson “Mysteries” de Beth Gibbons.

Clip vidéo

Tablature, accords, paroles:

Intro
-----

   Gm (repeat loads of times)
e------------
b------------
G---------3--
D-------5----
A-----5------
E---3--------

Repeat this throughout the song
-------------------------------

      Gm     Gm        C        C       F       F        F       F
e-------------------------------------------------------------------------
b---------------------------5-------5--------1-------1-------1-------1----
G---------3-------3-------5-------5--------2-------2-------2-------2------
D-------5-------5-------5-------5-----------------------------------------
A-----5-------5-------3-------3----------3-------3-------3-------3--------
E---3-------3--------------------------1-------1-------1-------1----------

      Dm     Dm        A#       A#
e---------1-------1--------------------
b-------3-------3-----------3-------3--
G-----2-------2-----------3-------3----
D---0-------0-----------3-------3------
A---------------------1-------1--------
E--------------------------------------

Lyrics
------

God knows how I adore life
When the wind turns on the shores lies another day
I cannot ask for more

When the time bell blows my heart
And I have scored a better day
Well nobody made this war of mine

And the moments that I enjoy
A place of love and mystery
I'll be there anytime

Oh mysteries of love
Where war is no more
I'll be there anytime

When the time bell blows my heart
And I have scored a better day
Well nobody made this war of mine

And the moments that I enjoy
A place of love and mystery
I'll be there anytime

Mysteries of love
Where war is no more
I'll be there anytime

Leave a Reply

Ce site utilise Akismet pour réduire les indésirables. En savoir plus sur comment les données de vos commentaires sont utilisées.