Beatles

Beatles – Come together

Tablature gratuite de la chanson “Come together” des Beatles.

Intro:  x4
e-------------1----|
B-------------1----|
G--------0h2-------| 
D--0--0------------|
A------------------|
E------------------|
Couplet 1:
(Dm)
e--------------------------------------------------|
B--------------------------------------------------|
G--------------------------------------------------|
D--7--7--9--9--7--7--9--9--7--7--9--9--7--7--9--9--|
A--5--5--5--5--5--5--5--5--5--5--5--5--5--5--5--5--|
E--------------------------------------------------|
"Here come old flattop, he come grooving up slowly, he got..."
e--------------------------------------------------|
B--------------------------------------------------|
G--------------------------------------------------|
D--7--7--9--9--7--7--9--9--7--7--9--9--7--7--9--9--|
A--5--5--5--5--5--5--5--5--5--5--5--5--5--5--5--5--|
E--------------------------------------------------|
"Joo-joo eyeball, he one holy roller, he got..."
(A7)
e--------------------------------------------------|
B--------------------------------------------------|
G--------------------------------------------------|
D--------------------------------------------------|
A--7--7--9--9--7--7--9--9--7--7--9--9--7--7--9--9--|
E--5--5--5--5--5--5--5--5--5--5--5--5--5--5--5--5--|
"Hair        down        to    his  knee"
(G7)
e------------------------------------------------|
B------------------------------------------------|
G------------------------------------------------|
D------------------------------------------------|
A--5---------------------------------------------|
E--3---------------------------------------------|
"Got to be a joker he just do what he please"
Intro Riff x4
Couplet 2:
(Dm)
e--------------------------------------------------|
B--------------------------------------------------|
G--------------------------------------------------|
D--7--7--9--9--7--7--9--9--7--7--9--9--7--7--9--9--|
A--5--5--5--5--5--5--5--5--5--5--5--5--5--5--5--5--|
E--------------------------------------------------|
"He wear no shoeshine, he got toe-jam football, he got..."
e--------------------------------------------------|
B--------------------------------------------------|
G--------------------------------------------------|
D--7--7--9--9--7--7--9--9--7--7--9--9--7--7--9--9--|
A--5--5--5--5--5--5--5--5--5--5--5--5--5--5--5--5--|
E--------------------------------------------------|
"Monkey finger, he shoot Coca Cola, he say..."
(A7)
e--------------------------------------------------|
B--------------------------------------------------|
G--------------------------------------------------|
D--------------------------------------------------|
A--7--7--9--9--7--7--9--9--7--7--9--9--7--7--9--9--|
E--5--5--5--5--5--5--5--5--5--5--5--5--5--5--5--5--|
"I know   you,        you   know  me"
(G7)
e------------------------------------------------|
B------------------------------------------------|
G------------------------------------------------|
D------------------------------------------------|
A--5---------------------------------------------|
E--3---------------------------------------------|
"One thing I can tell you is you got to be free"
Refrain:
(Bm)               (A)   (G)         (A)
e------------------------------------------------|
B------------------------------------------------|
G------------------------------------------------|
D---------9--9--9--9--9--9--7--7--5--5--5--5/-7--|
A---------9--9--9--9--9--9--7--7--5--5--5--5/-7--|
E---------7--7--7--7--7--7--5--5--3--3--3--3/-5--|
"Come together,           right now,        over me..."
Intro Riff x4
Couplet 3:
(Dm)
e--------------------------------------------------|
B--------------------------------------------------|
G--------------------------------------------------|
D--7--7--9--9--7--7--9--9--7--7--9--9--7--7--9--9--|
A--5--5--5--5--5--5--5--5--5--5--5--5--5--5--5--5--|
E--------------------------------------------------|
"He bag production, he got walrus gumboot, he got..."
e--------------------------------------------------|
B--------------------------------------------------|
G--------------------------------------------------|
D--7--7--9--9--7--7--9--9--7--7--9--9--7--7--9--9--|
A--5--5--5--5--5--5--5--5--5--5--5--5--5--5--5--5--|
E--------------------------------------------------|
"Ono sideboard, he one, spinal cracker, he got..."
(A7)
e--------------------------------------------------|
B--------------------------------------------------|
G--------------------------------------------------|
D--------------------------------------------------|
A--7--7--9--9--7--7--9--9--7--7--9--9--7--7--9--9--|
E--5--5--5--5--5--5--5--5--5--5--5--5--5--5--5--5--|
"Feet     down,    below   his    knees"
(G7)
e------------------------------------------------|
B------------------------------------------------|
G------------------------------------------------|
D------------------------------------------------|
A--5---------------------------------------------|
E--3---------------------------------------------|
"Hold you in his armchair, you can feel his disease"
Refrain x1
Intro Riff x2
Pont:
Guitare 1
e--------------------------------------------------|
B--------------------------------------------------|
G--------------------------------------------------| x2
D--7--7--9--9--7--7--9--9--7--7--9--9--7--7--9--9--|
A--5--5--5--5--5--5--5--5--5--5--5--5--5--5--5--5--|
E--------------------------------------------------|
Organ Solo
e-----------------------------------------------------------------------|
B-----------------------------------------------------------------------|
G--10-10-10-10-10-10-10---------------10-10-10-10-10-10-10--------------| x2
D--10-10-10-10-10-10-10----------10---10-10-10-10-10-10-10----------10--|
A------------------------12--10-----------------------------12--10------|
E-----------------------------------------------------------------------|
Guitare Solo 1:
Guitare 1
e--------------------------------------------------|
B--------------------------------------------------|
G--------------------------------------------------|
D--------------------------------------------------|
A--7--7--9--9--7--7--9--9--7--7--9--9--7--7--9--9--|
E--5--5--5--5--5--5--5--5--5--5--5--5--5--5--5--5--|
Guitare 2
e--15b17----------b17-b17r-13--15b17---------------|
B--------------------------------------------------|
G--------------------------------------------------|
D--------------------------------------------------|
A--------------------------------------------------|
E--------------------------------------------------|
Guitare 1
e--------------------------------------------------|
B--------------------------------------------------|
G--------------------------------------------------|
D--------------------------------------------------|
A--7--7--9--9--7--7--9--9--7--7--9--9--7--7--9--9--|
E--5--5--5--5--5--5--5--5--5--5--5--5--5--5--5--5--|
Guitare 2
e--15b17------------b17-b17r-13-12------------------------15b17--|
B------------------------------------------15b17-b17r-13---------|
G----------------------------------------------------------------|
D----------------------------------------------------------------|
A----------------------------------------------------------------|
E----------------------------------------------------------------|
Couplet 4:
(Dm)
e--------------------------------------------------|
B--------------------------------------------------|
G--------------------------------------------------|
D--7--7--9--9--7--7--9--9--7--7--9--9--7--7--9--9--|
A--5--5--5--5--5--5--5--5--5--5--5--5--5--5--5--5--|
E--------------------------------------------------|
"He roller coaster, he got early warning, he got..."
e--------------------------------------------------|
B--------------------------------------------------|
G--------------------------------------------------|
D--7--7--9--9--7--7--9--9--7--7--9--9--7--7--9--9--|
A--5--5--5--5--5--5--5--5--5--5--5--5--5--5--5--5--|
E--------------------------------------------------|
"He got muddy water, he one mojo filter, he say..."
(A7)
e--------------------------------------------------|
B--------------------------------------------------|
G--------------------------------------------------|
D--------------------------------------------------|
A--7--7--9--9--7--7--9--9--7--7--9--9--7--7--9--9--|
E--5--5--5--5--5--5--5--5--5--5--5--5--5--5--5--5--|
"One  and   one   and   one    is   three"
(G7)
e------------------------------------------------|
B------------------------------------------------|
G------------------------------------------------|
D------------------------------------------------|
A--5---------------------------------------------|
E--3---------------------------------------------|
"Got to be good looking cuz he's so hard to see"
Refrainx1
Intro Riff x4
Outro:
Guitare 1
e--------------------------------------------------|
B--------------------------------------------------|
G--------------------------------------------------|
D--7--7--9--9--7--7--9--9--7--7--9--9--7--7--9--9--|
A--5--5--5--5--5--5--5--5--5--5--5--5--5--5--5--5--|
E--------------------------------------------------|
"Ohh..."
Guitare 2
e--------------------------------------------------|
B--13b15-------------------------------------------|
G--------------------------------------------------|
D--------------------------------------------------|
A--------------------------------------------------|
E--------------------------------------------------|
Guitare 1
e--------------------------------------------------|
B--------------------------------------------------|
G--------------------------------------------------|
D--7--7--9--9--7--7--9--9--7--7--9--9--7--7--9--9--|
A--5--5--5--5--5--5--5--5--5--5--5--5--5--5--5--5--|
E--------------------------------------------------|
"Come Together"    
Guitare 2
e--13b15-b15r-10-----------------------------------|
B----------------13b15-----------------------------|
G--------------------------------------------------|
D--------------------------------------------------|
A--------------------------------------------------|
E--------------------------------------------------|
Guitare 1
e------------------------------------------------------|
B------------------------------------------------------|
G-----------------------7-------------------------7----|
D--7--7--9--9--7--7-7/9---9--7--7--9--9--7--7-7/9---9--|
A--5--5--5--5--5--5----------5--5--5--5--5--5----------|
E------------------------------------------------------|
"Come Together, Yeah"
Guitare 2
e------------------------------------------------------|
B----------------13b15---------------------------------|
G--10--12b13r-10---------------------------------------|
D------------------------------------------------------|
A------------------------------------------------------|
E------------------------------------------------------|
Guitare 1
e------------------------------------------------------|
B------------------------------------------------------|
G-----------------------7-------------------------7----|
D--7--7--9--9--7--7-7/9---9--7--7--9--9--7--7-7/9---9--|
A--5--5--5--5--5--5----------5--5--5--5--5--5----------|
E------------------------------------------------------|
"Come Together"
Guitare 2
e--10-13b15r-10----------------------------------------|
B---------------13b15----------------------------------|
G------------------------------------------------------|
D------------------------------------------------------|
A------------------------------------------------------|
E------------------------------------------------------|
Guitare 1
e------------------------------------------------------|
B------------------------------------------------------|
G-----------------------7-------------------------7----|
D--7--7--9--9--7--7-7/9---9--7--7--9--9--7--7-7/9---9--|
A--5--5--5--5--5--5----------5--5--5--5--5--5----------|
E------------------------------------------------------|
"Come Together"
Guitar 2
e------------------------------------------------------|
B--10-13b15r-10----------------------------------------|
G---------------12b13----------------------------------|
D------------------------------------------------------|
A------------------------------------------------------|
E------------------------------------------------------|
Guitare 1
[Rejouer]
Guitar 2
e--15b17--b17r-13-15b17--------------------------------|
B------------------------------------------------------|
G------------------------------------------------------|
D------------------------------------------------------|
A------------------------------------------------------|
E------------------------------------------------------|
Guitare 1
[Rejouer]
Guitare 2
e--17--20b22r-17-20b22---------------------------------|
B------------------------------------------------------|
G------------------------------------------------------|
D------------------------------------------------------|
A------------------------------------------------------|
E------------------------------------------------------|
Guitare 1
[Rejouer]
Guitare 2
e--17--20b22r-17-20b22---------------------------------|
B------------------------------------------------------|
G------------------------------------------------------|
D------------------------------------------------------|
A------------------------------------------------------|
E------------------------------------------------------|
Guitare 1
[Rejouer]
Guitare 2
e--13--15b17r-13-15b17---------------------------------|
B------------------------------------------------------|
G------------------------------------------------------|
D------------------------------------------------------|
A------------------------------------------------------|
E------------------------------------------------------|
Guitare 1
[repeatRejouer
Guitar 2
e------------------------------------------------------|
B----------------13b15---------------------------------|
G--10--12b13r-10---------------------------------------|
D------------------------------------------------------|
A------------------------------------------------------|
E------------------------------------------------------|
Guitare 1
[Rejouer]
Guitare 2
e--13b15-b15r-10---------------------------------------|
B----------------13b15---------------------------------|
G------------------------------------------------------|
D------------------------------------------------------|
A------------------------------------------------------|
E------------------------------------------------------|

Leave a Reply

Ce site utilise Akismet pour réduire les indésirables. En savoir plus sur comment les données de vos commentaires sont utilisées.