Beatles

Beatles – A hard day’s night

Tablature guitare de la chanson “A hard day’s night” des Beatles.

Accords:
Gsus2	353533

Intro:
Gsus2  (Laisser sonner)


Couplet:
            G    C     G                    F              G
It's been a hard day's night, and I've been working like a dog
                 C     G                    F               G
It's been a hard day's night, and I've been sleeping like a log
               C                       D
But when I get home to you, I find the things that you do
           G    C G
You know I feel alright


Couplet:
You know I work all day, to get you money to buy you things
And it's worth it just to hear you say, you're going to give me everything
So why on earth should I moan, cause when I get you alone
You know I feel ok


Pont:
         Bm   Em                     Bm
When I'm home everything seems to be right
         G     Em                     Am     D7
When I'm home, feeling you holding me tight, tight


Couplet:
It's been a hard day's night, and I've been working like a dog
It's been a hard day's night, I should be sleeping like a log
But when I get home to you, I find the things that you do
Will make me feel alright

Solo
  |------------------------------|------1-----1-----1-----1----------| (x2)
  |--------------------1-------3-|--1-3---1-3---1-3---1-3---3--------|
  |*---0-------0---3-------3-----|----------------------------3---0-*|
  |*-----------------------------|----------------------------------*|
  |------------------------------|-----------------------------------|
  |------------------------------|-----------------------------------|

             C                      	    D
So why on earth should I moan, 'cause when I get you alone
           G    C G
You know I feel ok

PONT

            G    C     G                    F              G
It's been a hard day's night, and I've been working like a dog
                 C     G                    F               G
It's been a hard day's night, and I've been sleeping like a log
               C                       D
But when I get home to you, I find the things that you do
           G    C G
You know I feel alright


G               C    G
You know I feel alright
                C
You know I feel alr

  |--1-------3-------1--------3------1-------3-----|
  |--1-1---1---1---1---1---1---1---1---1---1---1---|
  |--2---2-------2-------2-------2-------2-------2-|
  |------------------------------------------------|
  |------------------------------------------------|
  |------------------------------------------------|

Leave a Reply

Ce site utilise Akismet pour réduire les indésirables. En savoir plus sur comment les données de vos commentaires sont utilisées.