Alain Souchon

Alain Souchon – Rive gauche

Tablature guitare de la chanson “Rive gauche” de Alain Souchon.

Clip vidéo

Tablature, accords:

Guitare 1 : capo 4ème case

E |--0----|------3|2-2----|--2----|
B |-------|--3----|------0h1---1--|
G |-------|-------|----2--|------2|
D |-2-----|-------|0------|-------|
A |-------|-------|-------|-------|
E |----0-2|3---3--|-------|-------|


Guitare 2 : capo 4ème case

E |--0----|--3----|--2----|--2----|
B |---0---|---3---|---3---|---1-0-|
G |----0--|----0--|----2--|-------|
D |-------|-------|-0-----|-0-----|
A |-------|-------|-------|-------|
E |-0-----|-3-----|-------|-------|


Capo 4

Em G D D7
les chansons de Prevert me reviennent
Em G D D7
De tous les souffleurs de verres.....laine
Em G D D7
Du vieux Férré les cris la tempête
Em G D D7
Boris Vian ça s'ecrit à la trompette


Em G D D7
Rive gauche à Paris
Em G D D7
Adieu mon pays
Em G D D7
De musique et de poésie
Em G D D7 
Les marchands malappris
Em G D D7 
Qui ailleurs ont déjà tout pris
Em G D D7
Viennent vendre leurs habits
Em G D D7
En librairie 
Em G D D7
en librairie


Si tendre soit la nuit elle passe
Oh ma Zelda c'est fini Montparnasse
Miles Davis qui sonne sa Gréco
Tous les morts y sonnent leur Nico


Rive gauche à Paris
Oh mon île Oh mon pays
De musique et de poésie
D'art et de liberté éprise
Elle s'est fait vendre elle est prise
Elle va mourir quoiqu'on en dise
Et ma chanson la mélancolise


La vie c'est du théatre et des souvenirs
Mais nous sommes opiniatres à ne pas mourir
A trainer sur les berges venez voir
On dirait Jane et Serge sur le pont des arts


Rive gauche à Paris
Adieu mon pays
Adieu le jazz adieu la nuit
Un état dans l'état d'esprit
Traité par le mépris
Comme le Québec par les Etats Unis
Comme nous aussi
Ah! le mépris ah! Le mépris

Leave a Reply

Ce site utilise Akismet pour réduire les indésirables. En savoir plus sur comment les données de vos commentaires sont utilisées.