Site icon Guitare-Tabs.com

Damien Saez – A ton nom

Tablature de la chanson « A ton nom » de Damien Saez.

Intro / Couplets :
|-0--------0--0-----------0--------0-0-----------------------------------------------|
|------1-----------1-----------1----------3--1--0--------0-0----3---3---3-1-1—1h3p1--|
|----2---2-------2-----0-----0---0------0------------0---------0---0---2-------------|
|--------------------------------------------------2---2------2---2---2--------------|
|-0-----------0------2----3----------3----------2----------2----------------0--------|
|------------------------------------------------------------------------------------| x3
 
|-0--------0--0-----------0--------0-0-----------------------------------------------|
|------1-----------1-----------1----------3--1--0--------0-0----3---3---3-1-1—-1--3--|
|----2---2-------2-----0-----0---0------0------------0---------0---0---2-------------|
|--------------------------------------------------2---2------2---2---2--------------|
|-0-----------0------2----3----------3----------2----------2----------------0--------|
|------------------------------------------------------------------------------------| x1
 
|-0--------0--0-----------0--------0-0-----------------------------------------------|
|------1-----------1-----------1----------3--1--0--------0-0----3---3---3-1-1—1h3p1--|
|----2---2-------2-----0-----0---0------0------------0---------0---0---2-------------|
|--------------------------------------------------2---2------2---2---2--------------|
|-0-----------0------2----3----------3----------2----------2----------------0--------|
|------------------------------------------------------------------------------------| x2
 
Refrain :
|-0-------0-0----------0-------0-0---------0----------0--0---1-0---0-------0-0---1-0-|
|-----1---------1----------1---------1-----------1---------------------1-------------|
|---0---0-----0----0-----2---2-----2---2-------2---2-------2---------0---0-----0-----|
|------------------------------------------3-------------3---------------------------|
|-3---------3----2-----0---------0---------------------------------3---------3-------|
|------------------------------------------------------------------------------------| x1
 

|-0-------0-0----------0-------0-0---------0----------0--0---------0-------0-0-------|
|-----1---------1----------1---------1-----------1-----------1h3p1-----1-------------|
|---0---0-----0----0-----2---2-----2---2-------2---2-------2---------0---0-----------|
|------------------------------------------3-------------3---------------------------|
|-3---------3----2-----0---------0---------------------------------3---------3-------|
|------------------------------------------------------------------------------------| x1
 
 
Couplet :
|-0--------0--0-----------0--------0-0-----------------------------------------------|
|------1-----------1-----------1----------3--1--0--------0-0----3---3---3-1-1—1h3p1--|
|----2---2-------2-----0-----0---0------0------------0---------0---0---2-------------|
|--------------------------------------------------2---2------2---2---2--------------|
|-0-----------0------2----3----------3----------2----------2----------------0--------|
|------------------------------------------------------------------------------------| x2
 
|-0--------0--0-----------0--------0-0----1--0-----------3--3---3-1-0-------0-0---------|
|------1-----------1-----------1----------------0-----------------------1---------1h3h1—|
|----2---2-------2----0------0---0------0------------0--------0-------2---2-----2-------|
|--------------------------------------------------2---2--------------------------------|
|-0-----------0-----2-----3----------3----------2-----------2-------0---------0---------|
|---------------------------------------------------------------------------------------| x1
 

|-0--------0--0-----------0--------0-0-------------------3--3---3-1-0-------0-0---------|
|------1-----------1-----------1----------3—-1--0-----------------------1--------------—|
|----2---2-------2-----0-----0---0------0------------0--------0-------2---2-------------|
|--------------------------------------------------2---2--------------------------------|
|-0-----------0------2----3----------3----------2-----------2-------0---------0---------|
|---------------------------------------------------------------------------------------| x1
 
Refrain :
|-0-------0-0----------0-------0-0---------0----------0--0---1-0---0-------0-0---1-0-|
|-----1---------1----------1---------1-----------1---------------------1-------------|
|---0---0-----0----0-----2---2-----2---2-------2---2-------2---------0---0-----0-----|
|------------------------------------------3-------------3---------------------------|
|-3---------3----2-----0---------0---------------------------------3---------3-------|
|------------------------------------------------------------------------------------| x1
 

|-0-------0-0----------0-------0-0---------0----------0--0---------0-------0-0---1-0-|
|-----1---------1----------1---------1-----------1-----------1h3p1-----1-------------|
|---0---0-----0----0-----2---2-----2---2-------2---2-------2---------0---0-----0-----|
|------------------------------------------3-------------3---------------------------|
|-3---------3----2-----0---------0---------------------------------3---------3-------|
|------------------------------------------------------------------------------------| x1
 
|-0-------0-0----------0-------0-0---------0----------0--0---1-0---0-------0-0---1-0-|
|-----1---------1----------1---------1-----------1---------------------1-------------|
|---0---0-----0----0-----2---2-----2---2-------2---2-------2---------0---0-----0-----|
|------------------------------------------3-------------3---------------------------|
|-3---------3----2-----0---------0---------------------------------3---------3-------|
|------------------------------------------------------------------------------------| x1
 
                                                                
|-0-------0-0----------0-------0-0---------
|-----1---------1----------1---------1-----
|---0---0-----0-----0----2---2-----2---2---
|------------------------------------------
|-3---------3-----2----0---------0---------
|------------------------------------------

Paroles:
Paroles A Ton Nom
On a prié pour toi, on en a dessiné des croix,
A ton nom,
On en a brûlé des livres, on a égorgé des enfants,
Juste de quoi tuer le temps,
Et toi t'as pris différents noms, t'as choisi différents drapeaux,
Dis mais pourquoi?
Moi je me souviens de ma mère, qui me chantait cette chanson,
Hallelujah.

Hallelujah, Inch'alla
Hallelujah, Inch'alla

On en a fait toute une histoire, où tu redescendais nous voir,
Mais t'es pas venue,
Nos sanglots pour uniques armes, mais combattre pour que nos larmes,
Ne soient pas perdues,
De siècles en siècles, et de nuits en nuits,
Et d'horreur en miséricordes,
On t'a attendu,
Mais l'espoir n'est pas l'éternel, mon dieu que la nuit est belle,
Sur notre plaine perdue.

Hallelujah, Inch'alla
Hallelujah, Inch'alla
Hallelujah, Inch'alla
Exit mobile version